  0
SECTION
  2
HEADER
  9
$ACADVER
  1
AC1015
  9
$ACADMAINTVER
 70
     6
  9
$DWGCODEPAGE
  3
ANSI_932
  9
$INSBASE
 10
0.0
 20
0.0
 30
0.0
  9
$EXTMIN
 10
0.000172
 20
15.661749
 30
1.000000E+20
  9
$EXTMAX
 10
79.99994
 20
44.338034
 30
-1.000000E+20
  9
$LIMMIN
 10
0.000172
 20
15.661749
  9
$LIMMAX
 10
79.99994
 20
44.338034
  9
$ORTHOMODE
 70
     0
  9
$REGENMODE
 70
     1
  9
$FILLMODE
 70
     1
  9
$QTEXTMODE
 70
     0
  9
$MIRRTEXT
 70
     1
  9
$LTSCALE
 40
1.0
  9
$ATTMODE
 70
     1
  9
$TEXTSIZE
 40
0.2
  9
$TRACEWID
 40
0.05
  9
$TEXTSTYLE
  7
Standard
  9
$CLAYER
  8
0
  9
$CELTYPE
  6
Continuous
  9
$CECOLOR
 62
   256
  9
$CELTSCALE
 40
1.0
  9
$DISPSILH
 70
     0
  9
$DIMSCALE
 40
1.0
  9
$DIMASZ
 40
0.18
  9
$DIMEXO
 40
0.0625
  9
$DIMDLI
 40
0.38
  9
$DIMRND
 40
0.0
  9
$DIMDLE
 40
0.0
  9
$DIMEXE
 40
0.18
  9
$DIMTP
 40
0.0
  9
$DIMTM
 40
0.0
  9
$DIMTXT
 40
0.18
  9
$DIMCEN
 40
0.09
  9
$DIMTSZ
 40
0.0
  9
$DIMTOL
 70
     0
  9
$DIMLIM
 70
     0
  9
$DIMTIH
 70
     1
  9
$DIMTOH
 70
     1
  9
$DIMSE1
 70
     0
  9
$DIMSE2
 70
     0
  9
$DIMTAD
 70
     0
  9
$DIMZIN
 70
     0
  9
$DIMBLK
  1

  9
$DIMASO
 70
     1
  9
$DIMSHO
 70
     1
  9
$DIMPOST
  1

  9
$DIMAPOST
  1

  9
$DIMALT
 70
     0
  9
$DIMALTD
 70
     2
  9
$DIMALTF
 40
25.4
  9
$DIMLFAC
 40
1.0
  9
$DIMTOFL
 70
     0
  9
$DIMTVP
 40
0.0
  9
$DIMTIX
 70
     0
  9
$DIMSOXD
 70
     0
  9
$DIMSAH
 70
     0
  9
$DIMBLK1
  1

  9
$DIMBLK2
  1

  9
$DIMSTYLE
  2
Standard
  9
$DIMCLRD
 70
     0
  9
$DIMCLRE
 70
     0
  9
$DIMCLRT
 70
     0
  9
$DIMTFAC
 40
1.0
  9
$DIMGAP
 40
0.09
  9
$DIMJUST
 70
     0
  9
$DIMSD1
 70
     0
  9
$DIMSD2
 70
     0
  9
$DIMTOLJ
 70
     1
  9
$DIMTZIN
 70
     0
  9
$DIMALTZ
 70
     0
  9
$DIMALTTZ
 70
     0
  9
$DIMUPT
 70
     0
  9
$DIMDEC
 70
     4
  9
$DIMTDEC
 70
     4
  9
$DIMALTU
 70
     2
  9
$DIMALTTD
 70
     2
  9
$DIMTXSTY
  7
Standard
  9
$DIMAUNIT
 70
     0
  9
$DIMADEC
 70
     0
  9
$DIMALTRND
 40
0.0
  9
$DIMAZIN
 70
     0
  9
$DIMDSEP
 70
     0
  9
$DIMATFIT
 70
     3
  9
$DIMFRAC
 70
     0
  9
$DIMLDRBLK
  1

  9
$DIMLUNIT
 70
     2
  9
$DIMLWD
 70
     0
  9
$DIMLWE
 70
     0
  9
$DIMTMOVE
 70
     0
  9
$LUNITS
 70
     2
  9
$LUPREC
 70
     4
  9
$SKETCHINC
 40
0.1
  9
$FILLETRAD
 40
0.0
  9
$AUNITS
 70
     0
  9
$AUPREC
 70
     0
  9
$MENU
  1
acad
  9
$ELEVATION
 40
0.0
  9
$PELEVATION
 40
0.0
  9
$THICKNESS
 40
0.0
  9
$LIMCHECK
 70
     0
  9
$CHAMFERA
 40
0.0
  9
$CHAMFERB
 40
0.0
  9
$CHAMFERC
 40
0.0
  9
$CHAMFERD
 40
0.0
  9
$SKPOLY
 70
     0
  9
$TDCREATE
 40
0.000000000
  9
$TDUCREATE
 40
0.000000000
  9
$TDUPDATE
 40
0.000000000
  9
$TDUUPDATE
 40
0.000000000
  9
$TDINDWG
 40
0.0000000000
  9
$TDUSRTIMER
 40
0.0000000000
  9
$USRTIMER
 70
     1
  9
$ANGBASE
 50
0.0
  9
$ANGDIR
 70
     0
  9
$PDMODE
 70
     0
  9
$PDSIZE
 40
0.0
  9
$PLINEWID
 40
0.0
  9
$SPLFRAME
 70
     0
  9
$SPLINETYPE
 70
     6
  9
$SPLINESEGS
 70
     8
  9
$HANDSEED
  5
3EE
  9
$SURFTAB1
 70
     6
  9
$SURFTAB2
 70
     6
  9
$SURFTYPE
 70
     6
  9
$SURFU
 70
     6
  9
$SURFV
 70
     6
  9
$UCSBASE
  2

  9
$UCSNAME
  2

  9
$UCSORG
 10
0.0
 20
0.0
 30
0.0
  9
$UCSXDIR
 10
1.0
 20
0.0
 30
0.0
  9
$UCSYDIR
 10
0.0
 20
1.0
 30
0.0
  9
$UCSORTHOREF
  2

  9
$UCSORTHOVIEW
 70
     0
  9
$UCSORGTOP
 10
0.0
 20
0.0
 30
0.0
  9
$UCSORGBOTTOM
 10
0.0
 20
0.0
 30
0.0
  9
$UCSORGLEFT
 10
0.0
 20
0.0
 30
0.0
  9
$UCSORGRIGHT
 10
0.0
 20
0.0
 30
0.0
  9
$UCSORGFRONT
 10
0.0
 20
0.0
 30
0.0
  9
$UCSORGBACK
 10
0.0
 20
0.0
 30
0.0
  9
$PUCSBASE
  2

  9
$PUCSNAME
  2

  9
$PUCSORG
 10
0.0
 20
0.0
 30
0.0
  9
$PUCSXDIR
 10
1.0
 20
0.0
 30
0.0
  9
$PUCSYDIR
 10
0.0
 20
1.0
 30
0.0
  9
$PUCSORTHOREF
  2

  9
$PUCSORTHOVIEW
 70
     0
  9
$PUCSORGTOP
 10
0.0
 20
0.0
 30
0.0
  9
$PUCSORGBOTTOM
 10
0.0
 20
0.0
 30
0.0
  9
$PUCSORGLEFT
 10
0.0
 20
0.0
 30
0.0
  9
$PUCSORGRIGHT
 10
0.0
 20
0.0
 30
0.0
  9
$PUCSORGFRONT
 10
0.0
 20
0.0
 30
0.0
  9
$PUCSORGBACK
 10
0.0
 20
0.0
 30
0.0
  9
$USERI1
 70
     0
  9
$USERI2
 70
     0
  9
$USERI3
 70
     0
  9
$USERI4
 70
     0
  9
$USERI5
 70
     0
  9
$USERR1
 40
0.0
  9
$USERR2
 40
0.0
  9
$USERR3
 40
0.0
  9
$USERR4
 40
0.0
  9
$USERR5
 40
0.0
  9
$WORLDVIEW
 70
     1
  9
$SHADEDGE
 70
     3
  9
$SHADEDIF
 70
    70
  9
$TILEMODE
 70
     1
  9
$MAXACTVP
 70
    16
  9
$PINSBASE
 10
0.0
 20
0.0
 30
0.0
  9
$PLIMCHECK
 70
     0
  9
$PEXTMIN
 10
1.000000E+20
 20
1.000000E+20
 30
1.000000E+20
  9
$PEXTMAX
 10
-1.000000E+20
 20
-1.000000E+20
 30
-1.000000E+20
  9
$PLIMMIN
 10
0.0
 20
0.0
  9
$PLIMMAX
 10
12.0
 20
9.0
  9
$UNITMODE
 70
     0
  9
$VISRETAIN
 70
     0
  9
$PLINEGEN
 70
     1
  9
$PSLTSCALE
 70
     0
  9
$TREEDEPTH
 70
  3020
  9
$CMLSTYLE
  2
Standard
  9
$CMLJUST
 70
     0
  9
$CMLSCALE
 40
1.0
  9
$PROXYGRAPHICS
 70
     0
  9
$MEASUREMENT
 70
     1
  9
$CELWEIGHT
370
     0
  9
$ENDCAPS
280
     0
  9
$JOINSTYLE
280
     0
  9
$LWDISPLAY
290
     0
  9
$INSUNITS
 70
     0
  9
$HYPERLINKBASE
  1

  9
$STYLESHEET
  1

  9
$XEDIT
290
     1
  9
$CEPSNTYPE
380
     0
  9
$PSTYLEMODE
290
     1
  9
$FINGERPRINTGUID
  2

  9
$VERSIONGUID
  2

  9
$EXTNAMES
290
     1
  9
$PSVPSCALE
 40
0.0
  0
ENDSEC
  0
SECTION
  2
CLASSES
  0
CLASS
  1
LWPOLYLINE
  2
AcDbPolyline
  3
AutoCAD 2000
 90
    32768
280
     0
281
     1
  0
CLASS
  1
IMAGE
  2
AcDbRasterImage
  3
ISM
 90
    32895
280
     0
281
     1
  0
CLASS
  1
OLE2FRAME
  2
AcDbOle2Frame
  3
AutoCAD 2000
 90
    32768
280
     0
281
     1
  0
CLASS
  1
HATCH
  2
AcDbHatch
  3
AutoCAD 2000
 90
        0
280
     0
281
     1
  0
CLASS
  1
DICTIONARYVAR
  2
AcDbDictionaryVar
  3
AutoCAD 2000
 90
    32768
280
     0
281
     0
  0
CLASS
  1
RASTERVARIABLES
  2
AcDbRasterVariables
  3
ISM
 90
    32768
280
     0
281
     0
  0
CLASS
  1
IMAGEDEF
  2
AcDbRasterImageDef
  3
ISM
 90
    32768
280
     0
281
     0
  0
CLASS
  1
IMAGEDEF_REACTOR
  2
AcDbRasterImageDefReactor
  3
ISM
 90
    32769
280
     0
281
     0
  0
CLASS
  1
IDBUFFER
  2
AcDbIdBuffer
  3
AutoCAD 2000
 90
    32768
280
     0
281
     0
  0
CLASS
  1
SPATIAL_FILTER
  2
AcDbSpatialFilter
  3
AutoCAD 2000
 90
    32768
280
     0
281
     0
  0
CLASS
  1
XRECORD
  2
AcDbXrecord
  3
AutoCAD 2000
 90
    32768
280
     0
281
     0
  0
CLASS
  1
SORTENTSTABLE
  2
AcDbSortentsTable
  3
AutoCAD 2000
 90
    32768
280
     0
281
     0
  0
CLASS
  1
LAYER_INDEX
  2
AcDbLayerIndex
  3
AutoCAD 2000
 90
    32768
280
     0
281
     0
  0
CLASS
  1
SPATIAL_INDEX
  2
AcDbSpatialIndex
  3
AutoCAD 2000
 90
    32768
280
     0
281
     0
  0
CLASS
  1
OBJECT_PTR
  2
CAseDLPNTableRecord
  3
"ASE-LPNTableRecord"
 90
    32769
280
     0
281
     0
  0
CLASS
  1
LAYOUT
  2
AcDbLayout
  3
AutoCAD 2000
 90
        0
280
     0
281
     0
  0
CLASS
  1
PLOTSETTINGS
  2
AcDbPlotSettings
  3
AutoCAD 2000
 90
    32768
280
     0
281
     0
  0
CLASS
  1
ACDBDICTIONARYWDFLT
  2
AcDbDictionaryWithDefault
  3
AutoCAD 2000
 90
        0
280
     0
281
     0
  0
CLASS
  1
ACDBPLACEHOLDER
  2
AcDbPlaceHolder
  3
AutoCAD 2000
 90
        0
280
     0
281
     0
  0
CLASS
  1
VBA_PROJECT
  2
AcDbVbaProject
  3
acadvba
 90
    32768
280
     0
281
     0
  0
CLASS
  1
WIPEOUT
  2
AcDbWipeout
  3
WipeOut|AutoCAD Express Tool|expresstools@autodesk.com
 90
    32895
280
     0
281
     1
  0
CLASS
  1
WIPEOUTVARIABLES
  2
AcDbWipeoutVariables
  3
WipeOut|AutoCAD Express Tool|expresstools@autodesk.com
 90
        0
280
     0
281
     0
  0
CLASS
  1
RTEXT
  2
RText
  3
RText|AutoCAD Express Tool|expresstools@autodesk.com
 90
    32768
280
     0
281
     1
  0
CLASS
  1
ARCALIGNEDTEXT
  2
AcDbArcAlignedText
  3
ATEXT|AutoCAD Express Tool|expresstools@autodesk.com
 90
    32768
280
     0
281
     1
  0
ENDSEC
  0
SECTION
  2
TABLES
  0
TABLE
  2
VPORT
  5
7
100
AcDbSymbolTable
 70
     1
  0
VPORT
  5
15
100
AcDbSymbolTableRecord
100
AcDbViewportTableRecord
  2
*ACTIVE
 70
     0
 10
0.0
 20
0.0
 11
1.0
 21
1.0
 12
6.591288
 22
4.579184
 13
0.0
 23
0.0
 14
1.0
 24
1.0
 15
0.0
 25
0.0
 16
0.0
 26
0.0
 36
1.0
 17
0.0
 27
0.0
 37
0.0
 40
9.158369
 41
0.688564
 42
50.0
 43
0.0
 44
0.0
 50
0.0
 51
0.0
 71
     0
 72
   100
 73
     1
 74
     1
 75
     0
 76
     0
 77
     0
 78
     0
281
     0
 65
     0
110
0.0
120
0.0
130
0.0
111
1.0
121
0.0
131
0.0
112
0.0
122
1.0
132
0.0
345
0
346
0
 79
     0
146
0.0
  0
ENDTAB
  0
TABLE
  2
LTYPE
  5
4
100
AcDbSymbolTable
 70
     3
  0
LTYPE
  5
11
100
AcDbSymbolTableRecord
100
AcDbLinetypeTableRecord
  2
ByBlock
 70
    64
  3

 72
    65
 73
     0
 40
0.0
  0
LTYPE
  5
12
100
AcDbSymbolTableRecord
100
AcDbLinetypeTableRecord
  2
ByLayer
 70
    64
  3

 72
    65
 73
     0
 40
0.0
  0
LTYPE
  5
13
100
AcDbSymbolTableRecord
100
AcDbLinetypeTableRecord
  2
Continuous
 70
    64
  3
Solid line
 72
    65
 73
     0
 40
0.0
  0
ENDTAB
  0
TABLE
  2
LAYER
  5
2
100
AcDbSymbolTable
 70
     6
  0
LAYER
  5
14
100
AcDbSymbolTableRecord
100
AcDbLayerTableRecord
  2
0
 70
     0
 62
     7
  6
Continuous
290
     1
370
    -3
390
1D
  0
LAYER
  5
28
100
AcDbSymbolTableRecord
100
AcDbLayerTableRecord
  2
0
 70
     0
 62
     2
  6
Continuous
290
     1
370
    -3
390
1D
  0
LAYER
  5
18C
100
AcDbSymbolTableRecord
100
AcDbLayerTableRecord
  2
DEFPOINTS
 70
     0
 62
     5
  6
Continuous
290
     0
370
    -3
390
1D
  0
LAYER
  5
18D
100
AcDbSymbolTableRecord
100
AcDbLayerTableRecord
  2
ORIGINS
 70
     0
 62
    -3
  6
Continuous
290
     1
370
    -3
390
1D
  0
LAYER
  5
196
100
AcDbSymbolTableRecord
100
AcDbLayerTableRecord
  2
SILKSCREEN
 70
     0
 62
     1
  6
Continuous
290
     1
370
    -3
390
1D
  0
LAYER
  5
2E5
100
AcDbSymbolTableRecord
100
AcDbLayerTableRecord
  2
CROP_MARKS
 70
     0
 62
  -160
  6
Continuous
290
     1
370
    -3
390
1D
  0
ENDTAB
  0
TABLE
  2
STYLE
  5
3
100
AcDbSymbolTable
 70
     5
  0
STYLE
  5
17
100
AcDbSymbolTableRecord
100
AcDbTextStyleTableRecord
  2
Standard
 70
     0
 40
0.0
 41
1.0
 50
0.0
 71
     0
 42
0.0
  3
txt
  4

  0
STYLE
  5
24
100
AcDbSymbolTableRecord
100
AcDbTextStyleTableRecord
  2
STD
 70
     0
 40
0.0
 41
1.0
 50
0.0
 71
     0
 42
0.0
  3
txt
  4

  0
STYLE
  5
25
100
AcDbSymbolTableRecord
100
AcDbTextStyleTableRecord
  2
TATESTD
 70
     4
 40
0.0
 41
1.0
 50
0.0
 71
     0
 42
0.0
  3
txt
  4

  0
STYLE
  5
26
100
AcDbSymbolTableRecord
100
AcDbTextStyleTableRecord
  2
KANJISTD
 70
     0
 40
0.0
 41
1.0
 50
0.0
 71
     0
 42
0.0
  3
txt
  4
extfont
  0
STYLE
  5
27
100
AcDbSymbolTableRecord
100
AcDbTextStyleTableRecord
  2
KANJITATE
 70
     4
 40
0.0
 41
1.0
 50
0.0
 71
     0
 42
0.0
  3
txt
  4
extfont
  0
ENDTAB
  0
TABLE
  2
VIEW
  5
5
100
AcDbSymbolTable
 70
     0
  0
ENDTAB
  0
TABLE
  2
UCS
  5
6
100
AcDbSymbolTable
 70
     0
  0
ENDTAB
  0
TABLE
  2
APPID
  5
8
100
AcDbSymbolTable
 70
     1
  0
APPID
  5
16
100
AcDbSymbolTableRecord
100
AcDbRegAppTableRecord
  2
ACAD
 70
     0
  0
ENDTAB
  0
TABLE
  2
DIMSTYLE
  5
9
100
AcDbSymbolTable
 70
     1
100
AcDbDimStyleTable
 71
     0
  0
DIMSTYLE
105
18
100
AcDbSymbolTableRecord
100
AcDbDimStyleTableRecord
  2
Standard
 70
     0
  3

  4

 40
1.0
 41
0.18
 42
0.0625
 43
0.38
 44
0.18
 45
0.0
 46
0.0
 47
0.0
 48
0.0
 71
     0
 72
     0
 73
     1
 74
     1
 75
     0
 76
     0
 77
     0
 78
     0
 79
     0
140
0.18
141
0.09
142
0.0
143
25.4
144
1.0
145
0.0
146
1.0
147
0.09
148
0.0
170
     0
171
     2
172
     0
173
     0
174
     0
175
     0
176
     0
177
     0
178
     0
179
     0
271
     4
272
     4
273
     2
274
     2
275
     0
276
     0
277
     2
278
    46
279
     0
280
     0
281
     0
282
     0
283
     1
284
     0
285
     0
286
     0
288
     0
340
17
341
0
342
0
343
0
344
0
371
    -2
372
    -2
  0
ENDTAB
  0
TABLE
  2
BLOCK_RECORD
  5
1
100
AcDbSymbolTable
 70
     2
  0
BLOCK_RECORD
  5
A
100
AcDbSymbolTableRecord
100
AcDbBlockTableRecord
  2
*MODEL_SPACE
340
20
  0
BLOCK_RECORD
  5
B
100
AcDbSymbolTableRecord
100
AcDbBlockTableRecord
  2
*PAPER_SPACE
340
21
  0
BLOCK_RECORD
  5
19C
100
AcDbSymbolTableRecord
100
AcDbBlockTableRecord
  2
AI9-BLK1
340
0
102
{BLKREFS
331
19D
102
}
  0
BLOCK_RECORD
  5
1A0
100
AcDbSymbolTableRecord
100
AcDbBlockTableRecord
  2
AI9-BLK2
340
0
102
{BLKREFS
331
1A1
102
}
  0
ENDTAB
  0
ENDSEC
  0
SECTION
  2
BLOCKS
  0
BLOCK
  5
D
100
AcDbEntity
  8
0
100
AcDbBlockBegin
  2
*MODEL_SPACE
 70
     0
 10
0.0
 20
0.0
 30
0.0
  3
*MODEL_SPACE
  1

  0
ENDBLK
  5
E
100
AcDbEntity
  8
0
100
AcDbBlockEnd
  0
BLOCK
  5
F
100
AcDbEntity
 67
     1
  8
0
100
AcDbBlockBegin
  2
*PAPER_SPACE
 70
     0
 10
0.0
 20
0.0
 30
0.0
  3
*PAPER_SPACE
  1

  0
ENDBLK
  5
10
100
AcDbEntity
 67
     1
  8
0
100
AcDbBlockEnd
  0
BLOCK
  5
19E
100
AcDbEntity
  8
SILKSCREEN
 62
     7
100
AcDbBlockBegin
  2
AI9-BLK1
 70
     0
 10
0.0
 20
0.0
 30
0.0
  3
AI9-BLK1
  1

  0
INSERT
  5
1A1
100
AcDbEntity
  8
SILKSCREEN
 62
     7
100
AcDbBlockReference
  2
AI9-BLK2
 10
0.0
 20
0.0
 30
0.0
  0
HATCH
  5
19F
100
AcDbEntity
  8
SILKSCREEN
 62
     7
100
AcDbHatch
 10
0.0
 20
0.0
 30
0.0
210
0.0
220
0.0
230
1.0
  2
SOLID
 70
     1
 71
     0
 91
        8
 92
       16
 93
        1
 72
     4
 94
        3
 73
     0
 74
     0
 95
       53
 96
       49
 40
0.0
 40
0.0
 40
0.0
 40
0.0
 40
1.0
 40
1.0
 40
1.0
 40
2.0
 40
2.0
 40
2.0
 40
3.0
 40
3.0
 40
3.0
 40
4.0
 40
4.0
 40
4.0
 40
5.0
 40
5.0
 40
5.0
 40
6.0
 40
6.0
 40
6.0
 40
7.0
 40
7.0
 40
7.0
 40
8.0
 40
8.0
 40
8.0
 40
9.0
 40
9.0
 40
9.0
 40
10.0
 40
10.0
 40
10.0
 40
11.0
 40
11.0
 40
11.0
 40
12.0
 40
12.0
 40
12.0
 40
13.0
 40
13.0
 40
13.0
 40
14.0
 40
14.0
 40
14.0
 40
15.0
 40
15.0
 40
15.0
 40
16.0
 40
16.0
 40
16.0
 40
16.0
 10
0.0533128526475694
 20
-1.0897698296440972
 10
0.0533128526475694
 20
-1.0897698296440972
 10
-0.0076653374565972
 20
-1.0897698296440972
 10
-0.0076653374565972
 20
-1.0897698296440972
 10
-0.0076653374565972
 20
-1.0897698296440972
 10
-0.0686435275607639
 20
-1.135589599609375
 10
-0.0686435275607639
 20
-1.135589599609375
 10
-0.0686435275607639
 20
-1.135589599609375
 10
-0.1142910427517361
 20
-1.1814093695746526
 10
-0.1142910427517361
 20
-1.1814093695746526
 10
-0.1142910427517361
 20
-1.1814093695746526
 10
-0.129449462890625
 20
-1.2575459798177082
 10
-0.129449462890625
 20
-1.2575459798177082
 10
-0.129449462890625
 20
-1.2575459798177082
 10
-0.1142910427517361
 20
-1.3336825900607638
 10
-0.1142910427517361
 20
-1.3336825900607638
 10
-0.1142910427517361
 20
-1.3336825900607638
 10
-0.0686435275607639
 20
-1.3795023600260417
 10
-0.0686435275607639
 20
-1.3795023600260417
 10
-0.0686435275607639
 20
-1.3795023600260417
 10
-0.0228237575954861
 20
-1.4098192003038192
 10
-0.0228237575954861
 20
-1.4098192003038192
 10
-0.0228237575954861
 20
-1.4098192003038192
 10
0.0533128526475694
 20
-1.4249776204427083
 10
0.0533128526475694
 20
-1.4249776204427083
 10
0.0533128526475694
 20
-1.4249776204427083
 10
0.1296217176649306
 20
-1.4098192003038192
 10
0.1296217176649306
 20
-1.4098192003038192
 10
0.1296217176649306
 20
-1.4098192003038192
 10
0.1905999077690972
 20
-1.3795023600260417
 10
0.1905999077690972
 20
-1.3795023600260417
 10
0.1905999077690972
 20
-1.3795023600260417
 10
0.220916748046875
 20
-1.3181796603732638
 10
0.220916748046875
 20
-1.3181796603732638
 10
0.220916748046875
 20
-1.3181796603732638
 10
0.2362474229600694
 20
-1.2575459798177082
 10
0.2362474229600694
 20
-1.2575459798177082
 10
0.2362474229600694
 20
-1.2575459798177082
 10
0.220916748046875
 20
-1.1814093695746526
 10
0.220916748046875
 20
-1.1814093695746526
 10
0.220916748046875
 20
-1.1814093695746526
 10
0.1905999077690972
 20
-1.135589599609375
 10
0.1905999077690972
 20
-1.135589599609375
 10
0.1905999077690972
 20
-1.135589599609375
 10
0.1296217176649306
 20
-1.0897698296440972
 10
0.1296217176649306
 20
-1.0897698296440972
 10
0.1296217176649306
 20
-1.0897698296440972
 10
0.0533128526475694
 20
-1.0897698296440972
 10
0.0533128526475694
 20
-1.0897698296440972
 97
        0
 92
        1
 93
        1
 72
     4
 94
        3
 73
     0
 74
     0
 95
      101
 96
       97
 40
0.0
 40
0.0
 40
0.0
 40
0.0
 40
1.0
 40
1.0
 40
1.0
 40
2.0
 40
2.0
 40
2.0
 40
3.0
 40
3.0
 40
3.0
 40
4.0
 40
4.0
 40
4.0
 40
5.0
 40
5.0
 40
5.0
 40
6.0
 40
6.0
 40
6.0
 40
7.0
 40
7.0
 40
7.0
 40
8.0
 40
8.0
 40
8.0
 40
9.0
 40
9.0
 40
9.0
 40
10.0
 40
10.0
 40
10.0
 40
11.0
 40
11.0
 40
11.0
 40
12.0
 40
12.0
 40
12.0
 40
13.0
 40
13.0
 40
13.0
 40
14.0
 40
14.0
 40
14.0
 40
15.0
 40
15.0
 40
15.0
 40
16.0
 40
16.0
 40
16.0
 40
17.0
 40
17.0
 40
17.0
 40
18.0
 40
18.0
 40
18.0
 40
19.0
 40
19.0
 40
19.0
 40
20.0
 40
20.0
 40
20.0
 40
21.0
 40
21.0
 40
21.0
 40
22.0
 40
22.0
 40
22.0
 40
23.0
 40
23.0
 40
23.0
 40
24.0
 40
24.0
 40
24.0
 40
25.0
 40
25.0
 40
25.0
 40
26.0
 40
26.0
 40
26.0
 40
27.0
 40
27.0
 40
27.0
 40
28.0
 40
28.0
 40
28.0
 40
29.0
 40
29.0
 40
29.0
 40
30.0
 40
30.0
 40
30.0
 40
31.0
 40
31.0
 40
31.0
 40
32.0
 40
32.0
 40
32.0
 40
32.0
 10
0.403851318359375
 20
-1.2575459798177082
 10
0.403851318359375
 20
-1.2575459798177082
 10
0.3886928982204861
 20
-1.3336825900607638
 10
0.3886928982204861
 20
-1.3336825900607638
 10
0.3886928982204861
 20
-1.3336825900607638
 10
0.3733622233072916
 20
-1.3946607801649304
 10
0.3733622233072916
 20
-1.3946607801649304
 10
0.3733622233072916
 20
-1.3946607801649304
 10
0.3428731282552083
 20
-1.4556389702690971
 10
0.3428731282552083
 20
-1.4556389702690971
 10
0.3428731282552083
 20
-1.4556389702690971
 10
0.2972256130642361
 20
-1.5162726508246527
 10
0.2972256130642361
 20
-1.5162726508246527
 10
0.2972256130642361
 20
-1.5162726508246527
 10
0.2515780978732639
 20
-1.5469340006510415
 10
0.2515780978732639
 20
-1.5469340006510415
 10
0.2515780978732639
 20
-1.5469340006510415
 10
0.1905999077690972
 20
-1.5775953504774305
 10
0.1905999077690972
 20
-1.5775953504774305
 10
0.1905999077690972
 20
-1.5775953504774305
 10
0.1296217176649306
 20
-1.6082567003038193
 10
0.1296217176649306
 20
-1.6082567003038193
 10
0.1296217176649306
 20
-1.6082567003038193
 10
0.0533128526475694
 20
-1.6082567003038193
 10
0.0533128526475694
 20
-1.6082567003038193
 10
0.0533128526475694
 20
-1.6082567003038193
 10
-0.0076653374565972
 20
-1.6082567003038193
 10
-0.0076653374565972
 20
-1.6082567003038193
 10
-0.0076653374565972
 20
-1.6082567003038193
 10
-0.0838019476996528
 20
-1.5775953504774305
 10
-0.0838019476996528
 20
-1.5775953504774305
 10
-0.0838019476996528
 20
-1.5775953504774305
 10
-0.129449462890625
 20
-1.5469340006510415
 10
-0.129449462890625
 20
-1.5469340006510415
 10
-0.129449462890625
 20
-1.5469340006510415
 10
-0.1904276529947916
 20
-1.5162726508246527
 10
-0.1904276529947916
 20
-1.5162726508246527
 10
-0.1904276529947916
 20
-1.5162726508246527
 10
-0.2360751681857639
 20
-1.4556389702690971
 10
-0.2360751681857639
 20
-1.4556389702690971
 10
-0.2360751681857639
 20
-1.4556389702690971
 10
-0.2667365180121528
 20
-1.3946607801649304
 10
-0.2667365180121528
 20
-1.3946607801649304
 10
-0.2667365180121528
 20
-1.3946607801649304
 10
-0.2818949381510417
 20
-1.3336825900607638
 10
-0.2818949381510417
 20
-1.3336825900607638
 10
-0.2818949381510417
 20
-1.3336825900607638
 10
-0.2818949381510417
 20
-1.2575459798177082
 10
-0.2818949381510417
 20
-1.2575459798177082
 10
-0.2818949381510417
 20
-1.2575459798177082
 10
-0.2818949381510417
 20
-1.1814093695746526
 10
-0.2818949381510417
 20
-1.1814093695746526
 10
-0.2818949381510417
 20
-1.1814093695746526
 10
-0.2667365180121528
 20
-1.104928249782986
 10
-0.2667365180121528
 20
-1.104928249782986
 10
-0.2667365180121528
 20
-1.104928249782986
 10
-0.2360751681857639
 20
-1.0442945692274304
 10
-0.2360751681857639
 20
-1.0442945692274304
 10
-0.2360751681857639
 20
-1.0442945692274304
 10
-0.1904276529947916
 20
-0.9984747992621527
 10
-0.1904276529947916
 20
-0.9984747992621527
 10
-0.1904276529947916
 20
-0.9984747992621527
 10
-0.1447801378038194
 20
-0.952655029296875
 10
-0.1447801378038194
 20
-0.952655029296875
 10
-0.1447801378038194
 20
-0.952655029296875
 10
-0.0838019476996528
 20
-0.9223381890190971
 10
-0.0838019476996528
 20
-0.9223381890190971
 10
-0.0838019476996528
 20
-0.9223381890190971
 10
-0.0228237575954861
 20
-0.9068352593315971
 10
-0.0228237575954861
 20
-0.9068352593315971
 10
-0.0228237575954861
 20
-0.9068352593315971
 10
0.0533128526475694
 20
-0.8916768391927082
 10
0.0533128526475694
 20
-0.8916768391927082
 10
0.0533128526475694
 20
-0.8916768391927082
 10
0.1296217176649306
 20
-0.9068352593315971
 10
0.1296217176649306
 20
-0.9068352593315971
 10
0.1296217176649306
 20
-0.9068352593315971
 10
0.1905999077690972
 20
-0.9223381890190971
 10
0.1905999077690972
 20
-0.9223381890190971
 10
0.1905999077690972
 20
-0.9223381890190971
 10
0.2515780978732639
 20
-0.952655029296875
 10
0.2515780978732639
 20
-0.952655029296875
 10
0.2515780978732639
 20
-0.952655029296875
 10
0.2972256130642361
 20
-0.9984747992621527
 10
0.2972256130642361
 20
-0.9984747992621527
 10
0.2972256130642361
 20
-0.9984747992621527
 10
0.3428731282552083
 20
-1.0594529893663194
 10
0.3428731282552083
 20
-1.0594529893663194
 10
0.3428731282552083
 20
-1.0594529893663194
 10
0.3733622233072916
 20
-1.120431179470486
 10
0.3733622233072916
 20
-1.120431179470486
 10
0.3733622233072916
 20
-1.120431179470486
 10
0.3886928982204861
 20
-1.1814093695746526
 10
0.3886928982204861
 20
-1.1814093695746526
 10
0.3886928982204861
 20
-1.1814093695746526
 10
0.403851318359375
 20
-1.2575459798177082
 10
0.403851318359375
 20
-1.2575459798177082
 97
        0
 92
        1
 93
        1
 72
     4
 94
        3
 73
     0
 74
     0
 95
      140
 96
      136
 40
0.0
 40
0.0
 40
0.0
 40
0.0
 40
1.0
 40
1.0
 40
1.0
 40
2.0
 40
2.0
 40
2.0
 40
3.0
 40
3.0
 40
3.0
 40
4.0
 40
4.0
 40
4.0
 40
5.0
 40
5.0
 40
5.0
 40
6.0
 40
6.0
 40
6.0
 40
7.0
 40
7.0
 40
7.0
 40
8.0
 40
8.0
 40
8.0
 40
9.0
 40
9.0
 40
9.0
 40
10.0
 40
10.0
 40
10.0
 40
11.0
 40
11.0
 40
11.0
 40
12.0
 40
12.0
 40
12.0
 40
13.0
 40
13.0
 40
13.0
 40
14.0
 40
14.0
 40
14.0
 40
15.0
 40
15.0
 40
15.0
 40
16.0
 40
16.0
 40
16.0
 40
17.0
 40
17.0
 40
17.0
 40
18.0
 40
18.0
 40
18.0
 40
19.0
 40
19.0
 40
19.0
 40
20.0
 40
20.0
 40
20.0
 40
21.0
 40
21.0
 40
21.0
 40
22.0
 40
22.0
 40
22.0
 40
23.0
 40
23.0
 40
23.0
 40
24.0
 40
24.0
 40
24.0
 40
25.0
 40
25.0
 40
25.0
 40
26.0
 40
26.0
 40
26.0
 40
27.0
 40
27.0
 40
27.0
 40
28.0
 40
28.0
 40
28.0
 40
29.0
 40
29.0
 40
29.0
 40
30.0
 40
30.0
 40
30.0
 40
31.0
 40
31.0
 40
31.0
 40
32.0
 40
32.0
 40
32.0
 40
33.0
 40
33.0
 40
33.0
 40
34.0
 40
34.0
 40
34.0
 40
35.0
 40
35.0
 40
35.0
 40
36.0
 40
36.0
 40
36.0
 40
37.0
 40
37.0
 40
37.0
 40
38.0
 40
38.0
 40
38.0
 40
39.0
 40
39.0
 40
39.0
 40
40.0
 40
40.0
 40
40.0
 40
41.0
 40
41.0
 40
41.0
 40
42.0
 40
42.0
 40
42.0
 40
43.0
 40
43.0
 40
43.0
 40
44.0
 40
44.0
 40
44.0
 40
45.0
 40
45.0
 40
45.0
 40
45.0
 10
0.3886928982204861
 20
0.0529683430989583
 10
0.3886928982204861
 20
0.0529683430989583
 10
0.0229960123697917
 20
0.0529683430989583
 10
0.0229960123697917
 20
0.0529683430989583
 10
0.0229960123697917
 20
0.0529683430989583
 10
-0.037982177734375
 20
0.0529683430989583
 10
-0.037982177734375
 20
0.0529683430989583
 10
-0.037982177734375
 20
0.0529683430989583
 10
-0.0838019476996528
 20
0.0229960123697917
 10
-0.0838019476996528
 20
0.0229960123697917
 10
-0.0838019476996528
 20
0.0229960123697917
 10
-0.1142910427517361
 20
-0.0076653374565972
 10
-0.1142910427517361
 20
-0.0076653374565972
 10
-0.1142910427517361
 20
-0.0076653374565972
 10
-0.1142910427517361
 20
-0.053485107421875
 10
-0.1142910427517361
 20
-0.053485107421875
 10
-0.1142910427517361
 20
-0.053485107421875
 10
-0.1142910427517361
 20
-0.0989603678385417
 10
-0.1142910427517361
 20
-0.0989603678385417
 10
-0.1142910427517361
 20
-0.0989603678385417
 10
-0.0838019476996528
 20
-0.1296217176649306
 10
-0.0838019476996528
 20
-0.1296217176649306
 10
-0.0838019476996528
 20
-0.1296217176649306
 10
-0.037982177734375
 20
-0.1602830674913194
 10
-0.037982177734375
 20
-0.1602830674913194
 10
-0.037982177734375
 20
-0.1602830674913194
 10
0.0229960123697917
 20
-0.1602830674913194
 10
0.0229960123697917
 20
-0.1602830674913194
 10
0.0229960123697917
 20
-0.1602830674913194
 10
0.3886928982204861
 20
-0.1602830674913194
 10
0.3886928982204861
 20
-0.1602830674913194
 10
0.3886928982204861
 20
-0.1602830674913194
 10
0.3886928982204861
 20
-0.3583760579427083
 10
0.3886928982204861
 20
-0.3583760579427083
 10
0.3886928982204861
 20
-0.3583760579427083
 10
0.0229960123697917
 20
-0.3583760579427083
 10
0.0229960123697917
 20
-0.3583760579427083
 10
0.0229960123697917
 20
-0.3583760579427083
 10
-0.037982177734375
 20
-0.3583760579427083
 10
-0.037982177734375
 20
-0.3583760579427083
 10
-0.037982177734375
 20
-0.3583760579427083
 10
-0.0838019476996528
 20
-0.3890374077690972
 10
-0.0838019476996528
 20
-0.3890374077690972
 10
-0.0838019476996528
 20
-0.3890374077690972
 10
-0.1142910427517361
 20
-0.4190097384982638
 10
-0.1142910427517361
 20
-0.4190097384982638
 10
-0.1142910427517361
 20
-0.4190097384982638
 10
-0.1142910427517361
 20
-0.4648295084635417
 10
-0.1142910427517361
 20
-0.4648295084635417
 10
-0.1142910427517361
 20
-0.4648295084635417
 10
-0.1142910427517361
 20
-0.5109937879774306
 10
-0.1142910427517361
 20
-0.5109937879774306
 10
-0.1142910427517361
 20
-0.5109937879774306
 10
-0.0838019476996528
 20
-0.5409661187065972
 10
-0.0838019476996528
 20
-0.5409661187065972
 10
-0.0838019476996528
 20
-0.5409661187065972
 10
-0.037982177734375
 20
-0.5716274685329861
 10
-0.037982177734375
 20
-0.5716274685329861
 10
-0.037982177734375
 20
-0.5716274685329861
 10
0.0229960123697917
 20
-0.5716274685329861
 10
0.0229960123697917
 20
-0.5716274685329861
 10
0.0229960123697917
 20
-0.5716274685329861
 10
0.3886928982204861
 20
-0.5716274685329861
 10
0.3886928982204861
 20
-0.5716274685329861
 10
0.3886928982204861
 20
-0.5716274685329861
 10
0.3886928982204861
 20
-0.7697204589843749
 10
0.3886928982204861
 20
-0.7697204589843749
 10
0.3886928982204861
 20
-0.7697204589843749
 10
-0.2818949381510417
 20
-0.7697204589843749
 10
-0.2818949381510417
 20
-0.7697204589843749
 10
-0.2818949381510417
 20
-0.7697204589843749
 10
-0.2818949381510417
 20
-0.5716274685329861
 10
-0.2818949381510417
 20
-0.5716274685329861
 10
-0.2818949381510417
 20
-0.5716274685329861
 10
-0.1752692328559028
 20
-0.5716274685329861
 10
-0.1752692328559028
 20
-0.5716274685329861
 10
-0.1752692328559028
 20
-0.5716274685329861
 10
-0.220916748046875
 20
-0.5409661187065972
 10
-0.220916748046875
 20
-0.5409661187065972
 10
-0.220916748046875
 20
-0.5409661187065972
 10
-0.2514058430989583
 20
-0.4954908582899305
 10
-0.2514058430989583
 20
-0.4954908582899305
 10
-0.2514058430989583
 20
-0.4954908582899305
 10
-0.2818949381510417
 20
-0.4496710883246528
 10
-0.2818949381510417
 20
-0.4496710883246528
 10
-0.2818949381510417
 20
-0.4496710883246528
 10
-0.2818949381510417
 20
-0.3890374077690972
 10
-0.2818949381510417
 20
-0.3890374077690972
 10
-0.2818949381510417
 20
-0.3890374077690972
 10
-0.2818949381510417
 20
-0.3277147081163194
 10
-0.2818949381510417
 20
-0.3277147081163194
 10
-0.2818949381510417
 20
-0.3277147081163194
 10
-0.2667365180121528
 20
-0.2670810275607639
 10
-0.2667365180121528
 20
-0.2670810275607639
 10
-0.2667365180121528
 20
-0.2670810275607639
 10
-0.220916748046875
 20
-0.220916748046875
 10
-0.220916748046875
 20
-0.220916748046875
 10
-0.220916748046875
 20
-0.220916748046875
 10
-0.1752692328559028
 20
-0.1905999077690972
 10
-0.1752692328559028
 20
-0.1905999077690972
 10
-0.1752692328559028
 20
-0.1905999077690972
 10
-0.220916748046875
 20
-0.1451246473524306
 10
-0.220916748046875
 20
-0.1451246473524306
 10
-0.220916748046875
 20
-0.1451246473524306
 10
-0.2667365180121528
 20
-0.0989603678385417
 10
-0.2667365180121528
 20
-0.0989603678385417
 10
-0.2667365180121528
 20
-0.0989603678385417
 10
-0.2818949381510417
 20
-0.0383266872829861
 10
-0.2818949381510417
 20
-0.0383266872829861
 10
-0.2818949381510417
 20
-0.0383266872829861
 10
-0.2818949381510417
 20
0.0229960123697917
 10
-0.2818949381510417
 20
0.0229960123697917
 10
-0.2818949381510417
 20
0.0229960123697917
 10
-0.2667365180121528
 20
0.1142910427517361
 10
-0.2667365180121528
 20
0.1142910427517361
 10
-0.2667365180121528
 20
0.1142910427517361
 10
-0.2514058430989583
 20
0.1446078830295139
 10
-0.2514058430989583
 20
0.1446078830295139
 10
-0.2514058430989583
 20
0.1446078830295139
 10
-0.220916748046875
 20
0.1904276529947916
 10
-0.220916748046875
 20
0.1904276529947916
 10
-0.220916748046875
 20
0.1904276529947916
 10
-0.1904276529947916
 20
0.2055860731336806
 10
-0.1904276529947916
 20
0.2055860731336806
 10
-0.1904276529947916
 20
0.2055860731336806
 10
-0.1447801378038194
 20
0.2207444932725694
 10
-0.1447801378038194
 20
0.2207444932725694
 10
-0.1447801378038194
 20
0.2207444932725694
 10
-0.037982177734375
 20
0.2362474229600694
 10
-0.037982177734375
 20
0.2362474229600694
 10
-0.037982177734375
 20
0.2362474229600694
 10
0.3886928982204861
 20
0.2362474229600694
 10
0.3886928982204861
 20
0.2362474229600694
 10
0.3886928982204861
 20
0.2362474229600694
 10
0.3886928982204861
 20
0.0529683430989583
 10
0.3886928982204861
 20
0.0529683430989583
 97
        0
 92
        1
 93
        1
 72
     4
 94
        3
 73
     0
 74
     0
 95
      125
 96
      121
 40
0.0
 40
0.0
 40
0.0
 40
0.0
 40
1.0
 40
1.0
 40
1.0
 40
2.0
 40
2.0
 40
2.0
 40
3.0
 40
3.0
 40
3.0
 40
4.0
 40
4.0
 40
4.0
 40
5.0
 40
5.0
 40
5.0
 40
6.0
 40
6.0
 40
6.0
 40
7.0
 40
7.0
 40
7.0
 40
8.0
 40
8.0
 40
8.0
 40
9.0
 40
9.0
 40
9.0
 40
10.0
 40
10.0
 40
10.0
 40
11.0
 40
11.0
 40
11.0
 40
12.0
 40
12.0
 40
12.0
 40
13.0
 40
13.0
 40
13.0
 40
14.0
 40
14.0
 40
14.0
 40
15.0
 40
15.0
 40
15.0
 40
16.0
 40
16.0
 40
16.0
 40
17.0
 40
17.0
 40
17.0
 40
18.0
 40
18.0
 40
18.0
 40
19.0
 40
19.0
 40
19.0
 40
20.0
 40
20.0
 40
20.0
 40
21.0
 40
21.0
 40
21.0
 40
22.0
 40
22.0
 40
22.0
 40
23.0
 40
23.0
 40
23.0
 40
24.0
 40
24.0
 40
24.0
 40
25.0
 40
25.0
 40
25.0
 40
26.0
 40
26.0
 40
26.0
 40
27.0
 40
27.0
 40
27.0
 40
28.0
 40
28.0
 40
28.0
 40
29.0
 40
29.0
 40
29.0
 40
30.0
 40
30.0
 40
30.0
 40
31.0
 40
31.0
 40
31.0
 40
32.0
 40
32.0
 40
32.0
 40
33.0
 40
33.0
 40
33.0
 40
34.0
 40
34.0
 40
34.0
 40
35.0
 40
35.0
 40
35.0
 40
36.0
 40
36.0
 40
36.0
 40
37.0
 40
37.0
 40
37.0
 40
38.0
 40
38.0
 40
38.0
 40
39.0
 40
39.0
 40
39.0
 40
40.0
 40
40.0
 40
40.0
 40
40.0
 10
0.403851318359375
 20
-1.9582784016927082
 10
0.403851318359375
 20
-1.9582784016927082
 10
0.3886928982204861
 20
-2.019601101345486
 10
0.3886928982204861
 20
-2.019601101345486
 10
0.3886928982204861
 20
-2.019601101345486
 10
0.3733622233072916
 20
-2.0957377115885416
 10
0.3733622233072916
 20
-2.0957377115885416
 10
0.3733622233072916
 20
-2.0957377115885416
 10
0.3428731282552083
 20
-2.1415574815538192
 10
0.3428731282552083
 20
-2.1415574815538192
 10
0.3428731282552083
 20
-2.1415574815538192
 10
0.2972256130642361
 20
-2.2021911621093748
 10
0.2972256130642361
 20
-2.2021911621093748
 10
0.2972256130642361
 20
-2.2021911621093748
 10
0.2515780978732639
 20
-2.2328525119357638
 10
0.2515780978732639
 20
-2.2328525119357638
 10
0.2515780978732639
 20
-2.2328525119357638
 10
0.1905999077690972
 20
-2.2635138617621524
 10
0.1905999077690972
 20
-2.2635138617621524
 10
0.1905999077690972
 20
-2.2635138617621524
 10
0.1296217176649306
 20
-2.293486192491319
 10
0.1296217176649306
 20
-2.293486192491319
 10
0.1296217176649306
 20
-2.293486192491319
 10
0.0533128526475694
 20
-2.293486192491319
 10
0.0533128526475694
 20
-2.293486192491319
 10
0.0533128526475694
 20
-2.293486192491319
 10
-0.0076653374565972
 20
-2.293486192491319
 10
-0.0076653374565972
 20
-2.293486192491319
 10
-0.0076653374565972
 20
-2.293486192491319
 10
-0.0838019476996528
 20
-2.2635138617621524
 10
-0.0838019476996528
 20
-2.2635138617621524
 10
-0.0838019476996528
 20
-2.2635138617621524
 10
-0.129449462890625
 20
-2.2328525119357638
 10
-0.129449462890625
 20
-2.2328525119357638
 10
-0.129449462890625
 20
-2.2328525119357638
 10
-0.1904276529947916
 20
-2.2021911621093748
 10
-0.1904276529947916
 20
-2.2021911621093748
 10
-0.1904276529947916
 20
-2.2021911621093748
 10
-0.220916748046875
 20
-2.1415574815538192
 10
-0.220916748046875
 20
-2.1415574815538192
 10
-0.220916748046875
 20
-2.1415574815538192
 10
-0.2667365180121528
 20
-2.0802347819010416
 10
-0.2667365180121528
 20
-2.0802347819010416
 10
-0.2667365180121528
 20
-2.0802347819010416
 10
-0.2818949381510417
 20
-2.019601101345486
 10
-0.2818949381510417
 20
-2.019601101345486
 10
-0.2818949381510417
 20
-2.019601101345486
 10
-0.2818949381510417
 20
-1.9434644911024304
 10
-0.2818949381510417
 20
-1.9434644911024304
 10
-0.2818949381510417
 20
-1.9434644911024304
 10
-0.2818949381510417
 20
-1.8669833713107638
 10
-0.2818949381510417
 20
-1.8669833713107638
 10
-0.2818949381510417
 20
-1.8669833713107638
 10
-0.2514058430989583
 20
-1.7908467610677081
 10
-0.2514058430989583
 20
-1.7908467610677081
 10
-0.2514058430989583
 20
-1.7908467610677081
 10
-0.220916748046875
 20
-1.7302130805121527
 10
-0.220916748046875
 20
-1.7302130805121527
 10
-0.220916748046875
 20
-1.7302130805121527
 10
-0.1752692328559028
 20
-1.6840488009982637
 10
-0.1752692328559028
 20
-1.6840488009982637
 10
-0.1752692328559028
 20
-1.6840488009982637
 10
-0.0533128526475694
 20
-1.8060051812065971
 10
-0.0533128526475694
 20
-1.8060051812065971
 10
-0.0533128526475694
 20
-1.8060051812065971
 10
-0.0989603678385417
 20
-1.8669833713107638
 10
-0.0989603678385417
 20
-1.8669833713107638
 10
-0.0989603678385417
 20
-1.8669833713107638
 10
-0.1142910427517361
 20
-1.8976447211371525
 10
-0.1142910427517361
 20
-1.8976447211371525
 10
-0.1142910427517361
 20
-1.8976447211371525
 10
-0.129449462890625
 20
-1.9434644911024304
 10
-0.129449462890625
 20
-1.9434644911024304
 10
-0.129449462890625
 20
-1.9434644911024304
 10
-0.1142910427517361
 20
-2.019601101345486
 10
-0.1142910427517361
 20
-2.019601101345486
 10
-0.1142910427517361
 20
-2.019601101345486
 10
-0.0686435275607639
 20
-2.0650763617621526
 10
-0.0686435275607639
 20
-2.0650763617621526
 10
-0.0686435275607639
 20
-2.0650763617621526
 10
-0.0228237575954861
 20
-2.0957377115885416
 10
-0.0228237575954861
 20
-2.0957377115885416
 10
-0.0228237575954861
 20
-2.0957377115885416
 10
0.0533128526475694
 20
-2.1108961317274302
 10
0.0533128526475694
 20
-2.1108961317274302
 10
0.0533128526475694
 20
-2.1108961317274302
 10
0.1296217176649306
 20
-2.0957377115885416
 10
0.1296217176649306
 20
-2.0957377115885416
 10
0.1296217176649306
 20
-2.0957377115885416
 10
0.1905999077690972
 20
-2.0650763617621526
 10
0.1905999077690972
 20
-2.0650763617621526
 10
0.1905999077690972
 20
-2.0650763617621526
 10
0.220916748046875
 20
-2.019601101345486
 10
0.220916748046875
 20
-2.019601101345486
 10
0.220916748046875
 20
-2.019601101345486
 10
0.2362474229600694
 20
-1.9434644911024304
 10
0.2362474229600694
 20
-1.9434644911024304
 10
0.2362474229600694
 20
-1.9434644911024304
 10
0.2362474229600694
 20
-1.8976447211371525
 10
0.2362474229600694
 20
-1.8976447211371525
 10
0.2362474229600694
 20
-1.8976447211371525
 10
0.220916748046875
 20
-1.8669833713107638
 10
0.220916748046875
 20
-1.8669833713107638
 10
0.220916748046875
 20
-1.8669833713107638
 10
0.1599385579427083
 20
-1.7908467610677081
 10
0.1599385579427083
 20
-1.7908467610677081
 10
0.1599385579427083
 20
-1.7908467610677081
 10
0.2818949381510417
 20
-1.6840488009982637
 10
0.2818949381510417
 20
-1.6840488009982637
 10
0.2818949381510417
 20
-1.6840488009982637
 10
0.3277147081163194
 20
-1.7302130805121527
 10
0.3277147081163194
 20
-1.7302130805121527
 10
0.3277147081163194
 20
-1.7302130805121527
 10
0.3582038031684027
 20
-1.7908467610677081
 10
0.3582038031684027
 20
-1.7908467610677081
 10
0.3582038031684027
 20
-1.7908467610677081
 10
0.3886928982204861
 20
-1.8669833713107638
 10
0.3886928982204861
 20
-1.8669833713107638
 10
0.3886928982204861
 20
-1.8669833713107638
 10
0.403851318359375
 20
-1.9582784016927082
 10
0.403851318359375
 20
-1.9582784016927082
 97
        0
 92
        1
 93
        1
 72
     4
 94
        3
 73
     0
 74
     0
 95
       32
 96
       28
 40
0.0
 40
0.0
 40
0.0
 40
0.0
 40
1.0
 40
1.0
 40
1.0
 40
2.0
 40
2.0
 40
2.0
 40
3.0
 40
3.0
 40
3.0
 40
4.0
 40
4.0
 40
4.0
 40
5.0
 40
5.0
 40
5.0
 40
6.0
 40
6.0
 40
6.0
 40
7.0
 40
7.0
 40
7.0
 40
8.0
 40
8.0
 40
8.0
 40
9.0
 40
9.0
 40
9.0
 40
9.0
 10
-0.1447801378038194
 20
1.4706251356336804
 10
-0.1447801378038194
 20
1.4706251356336804
 10
-0.129449462890625
 20
1.5162726508246527
 10
-0.129449462890625
 20
1.5162726508246527
 10
-0.129449462890625
 20
1.5162726508246527
 10
-0.0989603678385417
 20
1.5619201660156248
 10
-0.0989603678385417
 20
1.5619201660156248
 10
-0.0989603678385417
 20
1.5619201660156248
 10
-0.0533128526475694
 20
1.5925815158420138
 10
-0.0533128526475694
 20
1.5925815158420138
 10
-0.0533128526475694
 20
1.5925815158420138
 10
0.0076653374565972
 20
1.6075676812065971
 10
0.0076653374565972
 20
1.6075676812065971
 10
0.0076653374565972
 20
1.6075676812065971
 10
0.0076653374565972
 20
1.3181796603732638
 10
0.0076653374565972
 20
1.3181796603732638
 10
0.0076653374565972
 20
1.3181796603732638
 10
-0.0533128526475694
 20
1.3333380805121526
 10
-0.0533128526475694
 20
1.3333380805121526
 10
-0.0533128526475694
 20
1.3333380805121526
 10
-0.0989603678385417
 20
1.3638271755642359
 10
-0.0989603678385417
 20
1.3638271755642359
 10
-0.0989603678385417
 20
1.3638271755642359
 10
-0.129449462890625
 20
1.4096469455295138
 10
-0.129449462890625
 20
1.4096469455295138
 10
-0.129449462890625
 20
1.4096469455295138
 10
-0.1447801378038194
 20
1.4706251356336804
 10
-0.1447801378038194
 20
1.4706251356336804
 97
        0
 92
       16
 93
        1
 72
     4
 94
        3
 73
     0
 74
     0
 95
      122
 96
      118
 40
0.0
 40
0.0
 40
0.0
 40
0.0
 40
1.0
 40
1.0
 40
1.0
 40
2.0
 40
2.0
 40
2.0
 40
3.0
 40
3.0
 40
3.0
 40
4.0
 40
4.0
 40
4.0
 40
5.0
 40
5.0
 40
5.0
 40
6.0
 40
6.0
 40
6.0
 40
7.0
 40
7.0
 40
7.0
 40
8.0
 40
8.0
 40
8.0
 40
9.0
 40
9.0
 40
9.0
 40
10.0
 40
10.0
 40
10.0
 40
11.0
 40
11.0
 40
11.0
 40
12.0
 40
12.0
 40
12.0
 40
13.0
 40
13.0
 40
13.0
 40
14.0
 40
14.0
 40
14.0
 40
15.0
 40
15.0
 40
15.0
 40
16.0
 40
16.0
 40
16.0
 40
17.0
 40
17.0
 40
17.0
 40
18.0
 40
18.0
 40
18.0
 40
19.0
 40
19.0
 40
19.0
 40
20.0
 40
20.0
 40
20.0
 40
21.0
 40
21.0
 40
21.0
 40
22.0
 40
22.0
 40
22.0
 40
23.0
 40
23.0
 40
23.0
 40
24.0
 40
24.0
 40
24.0
 40
25.0
 40
25.0
 40
25.0
 40
26.0
 40
26.0
 40
26.0
 40
27.0
 40
27.0
 40
27.0
 40
28.0
 40
28.0
 40
28.0
 40
29.0
 40
29.0
 40
29.0
 40
30.0
 40
30.0
 40
30.0
 40
31.0
 40
31.0
 40
31.0
 40
32.0
 40
32.0
 40
32.0
 40
33.0
 40
33.0
 40
33.0
 40
34.0
 40
34.0
 40
34.0
 40
35.0
 40
35.0
 40
35.0
 40
36.0
 40
36.0
 40
36.0
 40
37.0
 40
37.0
 40
37.0
 40
38.0
 40
38.0
 40
38.0
 40
39.0
 40
39.0
 40
39.0
 40
39.0
 10
0.1599385579427083
 20
1.8209913465711804
 10
0.1599385579427083
 20
1.8209913465711804
 10
0.1599385579427083
 20
1.5009419759114582
 10
0.1599385579427083
 20
1.5009419759114582
 10
0.1599385579427083
 20
1.5009419759114582
 10
0.220916748046875
 20
1.5925815158420138
 10
0.220916748046875
 20
1.5925815158420138
 10
0.220916748046875
 20
1.5925815158420138
 10
0.2362474229600694
 20
1.5465894911024305
 10
0.2362474229600694
 20
1.5465894911024305
 10
0.2362474229600694
 20
1.5465894911024305
 10
0.2515780978732639
 20
1.4857835557725694
 10
0.2515780978732639
 20
1.4857835557725694
 10
0.2515780978732639
 20
1.4857835557725694
 10
0.2362474229600694
 20
1.4248053656684025
 10
0.2362474229600694
 20
1.4248053656684025
 10
0.2362474229600694
 20
1.4248053656684025
 10
0.220916748046875
 20
1.3791578504774304
 10
0.220916748046875
 20
1.3791578504774304
 10
0.220916748046875
 20
1.3791578504774304
 10
0.1752692328559028
 20
1.3486687554253471
 10
0.1752692328559028
 20
1.3486687554253471
 10
0.1752692328559028
 20
1.3486687554253471
 10
0.1142910427517361
 20
1.3181796603732638
 10
0.1142910427517361
 20
1.3181796603732638
 10
0.1142910427517361
 20
1.3181796603732638
 10
0.1142910427517361
 20
1.7905022515190971
 10
0.1142910427517361
 20
1.7905022515190971
 10
0.1142910427517361
 20
1.7905022515190971
 10
0.0686435275607639
 20
1.7905022515190971
 10
0.0686435275607639
 20
1.7905022515190971
 10
0.0686435275607639
 20
1.7905022515190971
 10
0.0076653374565972
 20
1.7753438313802081
 10
0.0076653374565972
 20
1.7753438313802081
 10
0.0076653374565972
 20
1.7753438313802081
 10
-0.0686435275607639
 20
1.7601854112413193
 10
-0.0686435275607639
 20
1.7601854112413193
 10
-0.0686435275607639
 20
1.7601854112413193
 10
-0.129449462890625
 20
1.7448547363281248
 10
-0.129449462890625
 20
1.7448547363281248
 10
-0.129449462890625
 20
1.7448547363281248
 10
-0.1752692328559028
 20
1.7143656412760415
 10
-0.1752692328559028
 20
1.7143656412760415
 10
-0.1752692328559028
 20
1.7143656412760415
 10
-0.220916748046875
 20
1.6685458713107637
 10
-0.220916748046875
 20
1.6685458713107637
 10
-0.220916748046875
 20
1.6685458713107637
 10
-0.2514058430989583
 20
1.6075676812065971
 10
-0.2514058430989583
 20
1.6075676812065971
 10
-0.2514058430989583
 20
1.6075676812065971
 10
-0.2818949381510417
 20
1.5465894911024305
 10
-0.2818949381510417
 20
1.5465894911024305
 10
-0.2818949381510417
 20
1.5465894911024305
 10
-0.2818949381510417
 20
1.4706251356336804
 10
-0.2818949381510417
 20
1.4706251356336804
 10
-0.2818949381510417
 20
1.4706251356336804
 10
-0.2818949381510417
 20
1.3943162706163192
 10
-0.2818949381510417
 20
1.3943162706163192
 10
-0.2818949381510417
 20
1.3943162706163192
 10
-0.2667365180121528
 20
1.3333380805121526
 10
-0.2667365180121528
 20
1.3333380805121526
 10
-0.2667365180121528
 20
1.3333380805121526
 10
-0.220916748046875
 20
1.272359890407986
 10
-0.220916748046875
 20
1.272359890407986
 10
-0.220916748046875
 20
1.272359890407986
 10
-0.1904276529947916
 20
1.2267123752170137
 10
-0.1904276529947916
 20
1.2267123752170137
 10
-0.1904276529947916
 20
1.2267123752170137
 10
-0.129449462890625
 20
1.1962232801649304
 10
-0.129449462890625
 20
1.1962232801649304
 10
-0.129449462890625
 20
1.1962232801649304
 10
-0.0838019476996528
 20
1.1657341851128471
 10
-0.0838019476996528
 20
1.1657341851128471
 10
-0.0838019476996528
 20
1.1657341851128471
 10
-0.0076653374565972
 20
1.1505757649739583
 10
-0.0076653374565972
 20
1.1505757649739583
 10
-0.0076653374565972
 20
1.1505757649739583
 10
0.0533128526475694
 20
1.1352450900607638
 10
0.0533128526475694
 20
1.1352450900607638
 10
0.0533128526475694
 20
1.1352450900607638
 10
0.1296217176649306
 20
1.1505757649739583
 10
0.1296217176649306
 20
1.1505757649739583
 10
0.1296217176649306
 20
1.1505757649739583
 10
0.1905999077690972
 20
1.1657341851128471
 10
0.1905999077690972
 20
1.1657341851128471
 10
0.1905999077690972
 20
1.1657341851128471
 10
0.2515780978732639
 20
1.1962232801649304
 10
0.2515780978732639
 20
1.1962232801649304
 10
0.2515780978732639
 20
1.1962232801649304
 10
0.2972256130642361
 20
1.2418707953559027
 10
0.2972256130642361
 20
1.2418707953559027
 10
0.2972256130642361
 20
1.2418707953559027
 10
0.3428731282552083
 20
1.2876905653211805
 10
0.3428731282552083
 20
1.2876905653211805
 10
0.3428731282552083
 20
1.2876905653211805
 10
0.3733622233072916
 20
1.3486687554253471
 10
0.3733622233072916
 20
1.3486687554253471
 10
0.3733622233072916
 20
1.3486687554253471
 10
0.3886928982204861
 20
1.4096469455295138
 10
0.3886928982204861
 20
1.4096469455295138
 10
0.3886928982204861
 20
1.4096469455295138
 10
0.403851318359375
 20
1.4857835557725694
 10
0.403851318359375
 20
1.4857835557725694
 10
0.403851318359375
 20
1.4857835557725694
 10
0.3886928982204861
 20
1.5772508409288193
 10
0.3886928982204861
 20
1.5772508409288193
 10
0.3886928982204861
 20
1.5772508409288193
 10
0.3582038031684027
 20
1.6535597059461804
 10
0.3582038031684027
 20
1.6535597059461804
 10
0.3582038031684027
 20
1.6535597059461804
 10
0.4496710883246528
 20
1.6535597059461804
 10
0.4496710883246528
 20
1.6535597059461804
 10
0.4496710883246528
 20
1.6535597059461804
 10
0.4496710883246528
 20
1.6685458713107637
 10
0.4496710883246528
 20
1.6685458713107637
 10
0.4496710883246528
 20
1.6685458713107637
 10
0.1599385579427083
 20
1.8209913465711804
 10
0.1599385579427083
 20
1.8209913465711804
 97
        0
 92
        1
 93
        1
 72
     4
 94
        3
 73
     0
 74
     0
 95
       80
 96
       76
 40
0.0
 40
0.0
 40
0.0
 40
0.0
 40
1.0
 40
1.0
 40
1.0
 40
2.0
 40
2.0
 40
2.0
 40
3.0
 40
3.0
 40
3.0
 40
4.0
 40
4.0
 40
4.0
 40
5.0
 40
5.0
 40
5.0
 40
6.0
 40
6.0
 40
6.0
 40
7.0
 40
7.0
 40
7.0
 40
8.0
 40
8.0
 40
8.0
 40
9.0
 40
9.0
 40
9.0
 40
10.0
 40
10.0
 40
10.0
 40
11.0
 40
11.0
 40
11.0
 40
12.0
 40
12.0
 40
12.0
 40
13.0
 40
13.0
 40
13.0
 40
14.0
 40
14.0
 40
14.0
 40
15.0
 40
15.0
 40
15.0
 40
16.0
 40
16.0
 40
16.0
 40
17.0
 40
17.0
 40
17.0
 40
18.0
 40
18.0
 40
18.0
 40
19.0
 40
19.0
 40
19.0
 40
20.0
 40
20.0
 40
20.0
 40
21.0
 40
21.0
 40
21.0
 40
22.0
 40
22.0
 40
22.0
 40
23.0
 40
23.0
 40
23.0
 40
24.0
 40
24.0
 40
24.0
 40
25.0
 40
25.0
 40
25.0
 40
25.0
 10
0.3886928982204861
 20
2.1412129720052082
 10
0.3886928982204861
 20
2.1412129720052082
 10
0.3886928982204861
 20
2.0649041069878469
 10
0.3886928982204861
 20
2.0649041069878469
 10
0.3886928982204861
 20
2.0649041069878469
 10
0.3582038031684027
 20
2.0039259168836803
 10
0.3582038031684027
 20
2.0039259168836803
 10
0.3582038031684027
 20
2.0039259168836803
 10
0.3277147081163194
 20
1.988595241970486
 10
0.3277147081163194
 20
1.988595241970486
 10
0.3277147081163194
 20
1.988595241970486
 10
0.2972256130642361
 20
1.973436821831597
 10
0.2972256130642361
 20
1.973436821831597
 10
0.2972256130642361
 20
1.973436821831597
 10
0.1905999077690972
 20
1.9582784016927082
 10
0.1905999077690972
 20
1.9582784016927082
 10
0.1905999077690972
 20
1.9582784016927082
 10
-0.1142910427517361
 20
1.9582784016927082
 10
-0.1142910427517361
 20
1.9582784016927082
 10
-0.1142910427517361
 20
1.9582784016927082
 10
-0.1142910427517361
 20
1.8819695366753471
 10
-0.1142910427517361
 20
1.8819695366753471
 10
-0.1142910427517361
 20
1.8819695366753471
 10
-0.2818949381510417
 20
1.8819695366753471
 10
-0.2818949381510417
 20
1.8819695366753471
 10
-0.2818949381510417
 20
1.8819695366753471
 10
-0.2818949381510417
 20
1.9582784016927082
 10
-0.2818949381510417
 20
1.9582784016927082
 10
-0.2818949381510417
 20
1.9582784016927082
 10
-0.4496710883246528
 20
1.9582784016927082
 10
-0.4496710883246528
 20
1.9582784016927082
 10
-0.4496710883246528
 20
1.9582784016927082
 10
-0.4496710883246528
 20
2.1412129720052082
 10
-0.4496710883246528
 20
2.1412129720052082
 10
-0.4496710883246528
 20
2.1412129720052082
 10
-0.2818949381510417
 20
2.1412129720052082
 10
-0.2818949381510417
 20
2.1412129720052082
 10
-0.2818949381510417
 20
2.1412129720052082
 10
-0.2818949381510417
 20
2.293486192491319
 10
-0.2818949381510417
 20
2.293486192491319
 10
-0.2818949381510417
 20
2.293486192491319
 10
-0.1142910427517361
 20
2.293486192491319
 10
-0.1142910427517361
 20
2.293486192491319
 10
-0.1142910427517361
 20
2.293486192491319
 10
-0.1142910427517361
 20
2.1412129720052082
 10
-0.1142910427517361
 20
2.1412129720052082
 10
-0.1142910427517361
 20
2.1412129720052082
 10
0.1599385579427083
 20
2.1412129720052082
 10
0.1599385579427083
 20
2.1412129720052082
 10
0.1599385579427083
 20
2.1412129720052082
 10
0.1905999077690972
 20
2.1412129720052082
 10
0.1905999077690972
 20
2.1412129720052082
 10
0.1905999077690972
 20
2.1412129720052082
 10
0.220916748046875
 20
2.1561991373697915
 10
0.220916748046875
 20
2.1561991373697915
 10
0.220916748046875
 20
2.1561991373697915
 10
0.220916748046875
 20
2.1715298122829858
 10
0.220916748046875
 20
2.1715298122829858
 10
0.220916748046875
 20
2.1715298122829858
 10
0.2362474229600694
 20
2.2021911621093748
 10
0.2362474229600694
 20
2.2021911621093748
 10
0.2362474229600694
 20
2.2021911621093748
 10
0.220916748046875
 20
2.2478386773003471
 10
0.220916748046875
 20
2.2478386773003471
 10
0.220916748046875
 20
2.2478386773003471
 10
0.2057583279079861
 20
2.293486192491319
 10
0.2057583279079861
 20
2.293486192491319
 10
0.2057583279079861
 20
2.293486192491319
 10
0.3582038031684027
 20
2.293486192491319
 10
0.3582038031684027
 20
2.293486192491319
 10
0.3582038031684027
 20
2.293486192491319
 10
0.3886928982204861
 20
2.2325080023871524
 10
0.3886928982204861
 20
2.2325080023871524
 10
0.3886928982204861
 20
2.2325080023871524
 10
0.3886928982204861
 20
2.1412129720052082
 10
0.3886928982204861
 20
2.1412129720052082
 97
        0
 92
        1
 93
        1
 72
     4
 94
        3
 73
     0
 74
     0
 95
       86
 96
       82
 40
0.0
 40
0.0
 40
0.0
 40
0.0
 40
1.0
 40
1.0
 40
1.0
 40
2.0
 40
2.0
 40
2.0
 40
3.0
 40
3.0
 40
3.0
 40
4.0
 40
4.0
 40
4.0
 40
5.0
 40
5.0
 40
5.0
 40
6.0
 40
6.0
 40
6.0
 40
7.0
 40
7.0
 40
7.0
 40
8.0
 40
8.0
 40
8.0
 40
9.0
 40
9.0
 40
9.0
 40
10.0
 40
10.0
 40
10.0
 40
11.0
 40
11.0
 40
11.0
 40
12.0
 40
12.0
 40
12.0
 40
13.0
 40
13.0
 40
13.0
 40
14.0
 40
14.0
 40
14.0
 40
15.0
 40
15.0
 40
15.0
 40
16.0
 40
16.0
 40
16.0
 40
17.0
 40
17.0
 40
17.0
 40
18.0
 40
18.0
 40
18.0
 40
19.0
 40
19.0
 40
19.0
 40
20.0
 40
20.0
 40
20.0
 40
21.0
 40
21.0
 40
21.0
 40
22.0
 40
22.0
 40
22.0
 40
23.0
 40
23.0
 40
23.0
 40
24.0
 40
24.0
 40
24.0
 40
25.0
 40
25.0
 40
25.0
 40
26.0
 40
26.0
 40
26.0
 40
27.0
 40
27.0
 40
27.0
 40
27.0
 10
0.3886928982204861
 20
0.8151957194010416
 10
0.3886928982204861
 20
0.8151957194010416
 10
0.0229960123697917
 20
0.8151957194010416
 10
0.0229960123697917
 20
0.8151957194010416
 10
0.0229960123697917
 20
0.8151957194010416
 10
-0.037982177734375
 20
0.8151957194010416
 10
-0.037982177734375
 20
0.8151957194010416
 10
-0.037982177734375
 20
0.8151957194010416
 10
-0.0838019476996528
 20
0.7998650444878471
 10
-0.0838019476996528
 20
0.7998650444878471
 10
-0.0838019476996528
 20
0.7998650444878471
 10
-0.1142910427517361
 20
0.7542175292968749
 10
-0.1142910427517361
 20
0.7542175292968749
 10
-0.1142910427517361
 20
0.7542175292968749
 10
-0.1142910427517361
 20
0.7085700141059027
 10
-0.1142910427517361
 20
0.7085700141059027
 10
-0.1142910427517361
 20
0.7085700141059027
 10
-0.1142910427517361
 20
0.6629224989149305
 10
-0.1142910427517361
 20
0.6629224989149305
 10
-0.1142910427517361
 20
0.6629224989149305
 10
-0.0838019476996528
 20
0.6169304741753472
 10
-0.0838019476996528
 20
0.6169304741753472
 10
-0.0838019476996528
 20
0.6169304741753472
 10
-0.037982177734375
 20
0.6019443088107639
 10
-0.037982177734375
 20
0.6019443088107639
 10
-0.037982177734375
 20
0.6019443088107639
 10
0.0229960123697917
 20
0.5866136338975694
 10
0.0229960123697917
 20
0.5866136338975694
 10
0.0229960123697917
 20
0.5866136338975694
 10
0.3886928982204861
 20
0.5866136338975694
 10
0.3886928982204861
 20
0.5866136338975694
 10
0.3886928982204861
 20
0.5866136338975694
 10
0.3886928982204861
 20
0.4036790635850694
 10
0.3886928982204861
 20
0.4036790635850694
 10
0.3886928982204861
 20
0.4036790635850694
 10
-0.2818949381510417
 20
0.4036790635850694
 10
-0.2818949381510417
 20
0.4036790635850694
 10
-0.2818949381510417
 20
0.4036790635850694
 10
-0.2818949381510417
 20
0.5866136338975694
 10
-0.2818949381510417
 20
0.5866136338975694
 10
-0.2818949381510417
 20
0.5866136338975694
 10
-0.1752692328559028
 20
0.5866136338975694
 10
-0.1752692328559028
 20
0.5866136338975694
 10
-0.1752692328559028
 20
0.5866136338975694
 10
-0.220916748046875
 20
0.6322611490885416
 10
-0.220916748046875
 20
0.6322611490885416
 10
-0.220916748046875
 20
0.6322611490885416
 10
-0.2514058430989583
 20
0.6629224989149305
 10
-0.2514058430989583
 20
0.6629224989149305
 10
-0.2514058430989583
 20
0.6629224989149305
 10
-0.2818949381510417
 20
0.7237284342447916
 10
-0.2818949381510417
 20
0.7237284342447916
 10
-0.2818949381510417
 20
0.7237284342447916
 10
-0.2818949381510417
 20
0.7847066243489582
 10
-0.2818949381510417
 20
0.7847066243489582
 10
-0.2818949381510417
 20
0.7847066243489582
 10
-0.2818949381510417
 20
0.8303541395399304
 10
-0.2818949381510417
 20
0.8303541395399304
 10
-0.2818949381510417
 20
0.8303541395399304
 10
-0.2667365180121528
 20
0.8761739095052082
 10
-0.2667365180121528
 20
0.8761739095052082
 10
-0.2667365180121528
 20
0.8761739095052082
 10
-0.2514058430989583
 20
0.9219936794704861
 10
-0.2514058430989583
 20
0.9219936794704861
 10
-0.2514058430989583
 20
0.9219936794704861
 10
-0.220916748046875
 20
0.9523105197482638
 10
-0.220916748046875
 20
0.9523105197482638
 10
-0.220916748046875
 20
0.9523105197482638
 10
-0.1904276529947916
 20
0.9827996148003472
 10
-0.1904276529947916
 20
0.9827996148003472
 10
-0.1904276529947916
 20
0.9827996148003472
 10
-0.1447801378038194
 20
0.9979580349392361
 10
-0.1447801378038194
 20
0.9979580349392361
 10
-0.1447801378038194
 20
0.9979580349392361
 10
-0.037982177734375
 20
1.0132887098524304
 10
-0.037982177734375
 20
1.0132887098524304
 10
-0.037982177734375
 20
1.0132887098524304
 10
0.3886928982204861
 20
1.0132887098524304
 10
0.3886928982204861
 20
1.0132887098524304
 10
0.3886928982204861
 20
1.0132887098524304
 10
0.3886928982204861
 20
0.8151957194010416
 10
0.3886928982204861
 20
0.8151957194010416
 97
        0
 75
     0
 76
     1
 98
        1
 10
0.0
 20
0.0
  0
ENDBLK
  5
2DE
100
AcDbEntity
  8
SILKSCREEN
100
AcDbBlockEnd
  0
BLOCK
  5
1A2
100
AcDbEntity
  8
SILKSCREEN
 62
     7
100
AcDbBlockBegin
  2
AI9-BLK2
 70
     0
 10
0.0
 20
0.0
 30
0.0
  3
AI9-BLK2
  1

  0
POLYLINE
  5
2BB
100
AcDbEntity
  8
SILKSCREEN
 62
     7
100
AcDb2dPolyline
 66
     1
 10
0.0
 20
0.0
 30
0.0
 70
     1
  0
VERTEX
  5
2BC
100
AcDbEntity
  8
SILKSCREEN
 62
     7
100
AcDbVertex
100
AcDb2dVertex
 10
0.388693
 20
0.815196
 30
0.0
  0
VERTEX
  5
2BD
100
AcDbEntity
  8
SILKSCREEN
 62
     7
100
AcDbVertex
100
AcDb2dVertex
 10
0.022996
 20
0.815196
 30
0.0
  0
VERTEX
  5
2BE
100
AcDbEntity
  8
SILKSCREEN
 62
     7
100
AcDbVertex
100
AcDb2dVertex
 10
0.022996
 20
0.815196
 30
0.0
  0
VERTEX
  5
2BF
100
AcDbEntity
  8
SILKSCREEN
 62
     7
100
AcDbVertex
100
AcDb2dVertex
 10
-0.037982
 20
0.815196
 30
0.0
  0
VERTEX
  5
2C0
100
AcDbEntity
  8
SILKSCREEN
 62
     7
100
AcDbVertex
100
AcDb2dVertex
 10
-0.083802
 20
0.799865
 30
0.0
  0
VERTEX
  5
2C1
100
AcDbEntity
  8
SILKSCREEN
 62
     7
100
AcDbVertex
100
AcDb2dVertex
 10
-0.114291
 20
0.754218
 30
0.0
  0
VERTEX
  5
2C2
100
AcDbEntity
  8
SILKSCREEN
 62
     7
100
AcDbVertex
100
AcDb2dVertex
 10
-0.114291
 20
0.70857
 30
0.0
  0
VERTEX
  5
2C3
100
AcDbEntity
  8
SILKSCREEN
 62
     7
100
AcDbVertex
100
AcDb2dVertex
 10
-0.114291
 20
0.70857
 30
0.0
  0
VERTEX
  5
2C4
100
AcDbEntity
  8
SILKSCREEN
 62
     7
100
AcDbVertex
100
AcDb2dVertex
 10
-0.114291
 20
0.662922
 30
0.0
  0
VERTEX
  5
2C5
100
AcDbEntity
  8
SILKSCREEN
 62
     7
100
AcDbVertex
100
AcDb2dVertex
 10
-0.083802
 20
0.61693
 30
0.0
  0
VERTEX
  5
2C6
100
AcDbEntity
  8
SILKSCREEN
 62
     7
100
AcDbVertex
100
AcDb2dVertex
 10
-0.037982
 20
0.601944
 30
0.0
  0
VERTEX
  5
2C7
100
AcDbEntity
  8
SILKSCREEN
 62
     7
100
AcDbVertex
100
AcDb2dVertex
 10
0.022996
 20
0.586614
 30
0.0
  0
VERTEX
  5
2C8
100
AcDbEntity
  8
SILKSCREEN
 62
     7
100
AcDbVertex
100
AcDb2dVertex
 10
0.388693
 20
0.586614
 30
0.0
  0
VERTEX
  5
2C9
100
AcDbEntity
  8
SILKSCREEN
 62
     7
100
AcDbVertex
100
AcDb2dVertex
 10
0.388693
 20
0.403679
 30
0.0
  0
VERTEX
  5
2CA
100
AcDbEntity
  8
SILKSCREEN
 62
     7
100
AcDbVertex
100
AcDb2dVertex
 10
-0.281895
 20
0.403679
 30
0.0
  0
VERTEX
  5
2CB
100
AcDbEntity
  8
SILKSCREEN
 62
     7
100
AcDbVertex
100
AcDb2dVertex
 10
-0.281895
 20
0.586614
 30
0.0
  0
VERTEX
  5
2CC
100
AcDbEntity
  8
SILKSCREEN
 62
     7
100
AcDbVertex
100
AcDb2dVertex
 10
-0.175269
 20
0.586614
 30
0.0
  0
VERTEX
  5
2CD
100
AcDbEntity
  8
SILKSCREEN
 62
     7
100
AcDbVertex
100
AcDb2dVertex
 10
-0.175269
 20
0.586614
 30
0.0
  0
VERTEX
  5
2CE
100
AcDbEntity
  8
SILKSCREEN
 62
     7
100
AcDbVertex
100
AcDb2dVertex
 10
-0.220917
 20
0.632261
 30
0.0
  0
VERTEX
  5
2CF
100
AcDbEntity
  8
SILKSCREEN
 62
     7
100
AcDbVertex
100
AcDb2dVertex
 10
-0.251406
 20
0.662922
 30
0.0
  0
VERTEX
  5
2D0
100
AcDbEntity
  8
SILKSCREEN
 62
     7
100
AcDbVertex
100
AcDb2dVertex
 10
-0.281895
 20
0.723728
 30
0.0
  0
VERTEX
  5
2D1
100
AcDbEntity
  8
SILKSCREEN
 62
     7
100
AcDbVertex
100
AcDb2dVertex
 10
-0.281895
 20
0.784707
 30
0.0
  0
VERTEX
  5
2D2
100
AcDbEntity
  8
SILKSCREEN
 62
     7
100
AcDbVertex
100
AcDb2dVertex
 10
-0.281895
 20
0.784707
 30
0.0
  0
VERTEX
  5
2D3
100
AcDbEntity
  8
SILKSCREEN
 62
     7
100
AcDbVertex
100
AcDb2dVertex
 10
-0.281895
 20
0.830354
 30
0.0
  0
VERTEX
  5
2D4
100
AcDbEntity
  8
SILKSCREEN
 62
     7
100
AcDbVertex
100
AcDb2dVertex
 10
-0.266737
 20
0.876174
 30
0.0
  0
VERTEX
  5
2D5
100
AcDbEntity
  8
SILKSCREEN
 62
     7
100
AcDbVertex
100
AcDb2dVertex
 10
-0.251406
 20
0.921994
 30
0.0
  0
VERTEX
  5
2D6
100
AcDbEntity
  8
SILKSCREEN
 62
     7
100
AcDbVertex
100
AcDb2dVertex
 10
-0.220917
 20
0.952311
 30
0.0
  0
VERTEX
  5
2D7
100
AcDbEntity
  8
SILKSCREEN
 62
     7
100
AcDbVertex
100
AcDb2dVertex
 10
-0.190428
 20
0.9828
 30
0.0
  0
VERTEX
  5
2D8
100
AcDbEntity
  8
SILKSCREEN
 62
     7
100
AcDbVertex
100
AcDb2dVertex
 10
-0.14478
 20
0.997958
 30
0.0
  0
VERTEX
  5
2D9
100
AcDbEntity
  8
SILKSCREEN
 62
     7
100
AcDbVertex
100
AcDb2dVertex
 10
-0.037982
 20
1.013289
 30
0.0
  0
VERTEX
  5
2DA
100
AcDbEntity
  8
SILKSCREEN
 62
     7
100
AcDbVertex
100
AcDb2dVertex
 10
0.388693
 20
1.013289
 30
0.0
  0
VERTEX
  5
2DB
100
AcDbEntity
  8
SILKSCREEN
 62
     7
100
AcDbVertex
100
AcDb2dVertex
 10
0.388693
 20
0.815196
 30
0.0
  0
SEQEND
  5
2DC
100
AcDbEntity
  8
SILKSCREEN
 62
     7
  0
POLYLINE
  5
29A
100
AcDbEntity
  8
SILKSCREEN
 62
     7
100
AcDb2dPolyline
 66
     1
 10
0.0
 20
0.0
 30
0.0
 70
     1
  0
VERTEX
  5
29B
100
AcDbEntity
  8
SILKSCREEN
 62
     7
100
AcDbVertex
100
AcDb2dVertex
 10
0.388693
 20
2.141213
 30
0.0
  0
VERTEX
  5
29C
100
AcDbEntity
  8
SILKSCREEN
 62
     7
100
AcDbVertex
100
AcDb2dVertex
 10
0.388693
 20
2.141213
 30
0.0
  0
VERTEX
  5
29D
100
AcDbEntity
  8
SILKSCREEN
 62
     7
100
AcDbVertex
100
AcDb2dVertex
 10
0.388693
 20
2.064904
 30
0.0
  0
VERTEX
  5
29E
100
AcDbEntity
  8
SILKSCREEN
 62
     7
100
AcDbVertex
100
AcDb2dVertex
 10
0.358204
 20
2.003926
 30
0.0
  0
VERTEX
  5
29F
100
AcDbEntity
  8
SILKSCREEN
 62
     7
100
AcDbVertex
100
AcDb2dVertex
 10
0.327715
 20
1.988595
 30
0.0
  0
VERTEX
  5
2A0
100
AcDbEntity
  8
SILKSCREEN
 62
     7
100
AcDbVertex
100
AcDb2dVertex
 10
0.297226
 20
1.973437
 30
0.0
  0
VERTEX
  5
2A1
100
AcDbEntity
  8
SILKSCREEN
 62
     7
100
AcDbVertex
100
AcDb2dVertex
 10
0.1906
 20
1.958278
 30
0.0
  0
VERTEX
  5
2A2
100
AcDbEntity
  8
SILKSCREEN
 62
     7
100
AcDbVertex
100
AcDb2dVertex
 10
-0.114291
 20
1.958278
 30
0.0
  0
VERTEX
  5
2A3
100
AcDbEntity
  8
SILKSCREEN
 62
     7
100
AcDbVertex
100
AcDb2dVertex
 10
-0.114291
 20
1.88197
 30
0.0
  0
VERTEX
  5
2A4
100
AcDbEntity
  8
SILKSCREEN
 62
     7
100
AcDbVertex
100
AcDb2dVertex
 10
-0.281895
 20
1.88197
 30
0.0
  0
VERTEX
  5
2A5
100
AcDbEntity
  8
SILKSCREEN
 62
     7
100
AcDbVertex
100
AcDb2dVertex
 10
-0.281895
 20
1.958278
 30
0.0
  0
VERTEX
  5
2A6
100
AcDbEntity
  8
SILKSCREEN
 62
     7
100
AcDbVertex
100
AcDb2dVertex
 10
-0.449671
 20
1.958278
 30
0.0
  0
VERTEX
  5
2A7
100
AcDbEntity
  8
SILKSCREEN
 62
     7
100
AcDbVertex
100
AcDb2dVertex
 10
-0.449671
 20
2.141213
 30
0.0
  0
VERTEX
  5
2A8
100
AcDbEntity
  8
SILKSCREEN
 62
     7
100
AcDbVertex
100
AcDb2dVertex
 10
-0.281895
 20
2.141213
 30
0.0
  0
VERTEX
  5
2A9
100
AcDbEntity
  8
SILKSCREEN
 62
     7
100
AcDbVertex
100
AcDb2dVertex
 10
-0.281895
 20
2.293486
 30
0.0
  0
VERTEX
  5
2AA
100
AcDbEntity
  8
SILKSCREEN
 62
     7
100
AcDbVertex
100
AcDb2dVertex
 10
-0.114291
 20
2.293486
 30
0.0
  0
VERTEX
  5
2AB
100
AcDbEntity
  8
SILKSCREEN
 62
     7
100
AcDbVertex
100
AcDb2dVertex
 10
-0.114291
 20
2.141213
 30
0.0
  0
VERTEX
  5
2AC
100
AcDbEntity
  8
SILKSCREEN
 62
     7
100
AcDbVertex
100
AcDb2dVertex
 10
0.159939
 20
2.141213
 30
0.0
  0
VERTEX
  5
2AD
100
AcDbEntity
  8
SILKSCREEN
 62
     7
100
AcDbVertex
100
AcDb2dVertex
 10
0.159939
 20
2.141213
 30
0.0
  0
VERTEX
  5
2AE
100
AcDbEntity
  8
SILKSCREEN
 62
     7
100
AcDbVertex
100
AcDb2dVertex
 10
0.1906
 20
2.141213
 30
0.0
  0
VERTEX
  5
2AF
100
AcDbEntity
  8
SILKSCREEN
 62
     7
100
AcDbVertex
100
AcDb2dVertex
 10
0.220917
 20
2.156199
 30
0.0
  0
VERTEX
  5
2B0
100
AcDbEntity
  8
SILKSCREEN
 62
     7
100
AcDbVertex
100
AcDb2dVertex
 10
0.220917
 20
2.17153
 30
0.0
  0
VERTEX
  5
2B1
100
AcDbEntity
  8
SILKSCREEN
 62
     7
100
AcDbVertex
100
AcDb2dVertex
 10
0.236247
 20
2.202191
 30
0.0
  0
VERTEX
  5
2B2
100
AcDbEntity
  8
SILKSCREEN
 62
     7
100
AcDbVertex
100
AcDb2dVertex
 10
0.236247
 20
2.202191
 30
0.0
  0
VERTEX
  5
2B3
100
AcDbEntity
  8
SILKSCREEN
 62
     7
100
AcDbVertex
100
AcDb2dVertex
 10
0.220917
 20
2.247839
 30
0.0
  0
VERTEX
  5
2B4
100
AcDbEntity
  8
SILKSCREEN
 62
     7
100
AcDbVertex
100
AcDb2dVertex
 10
0.205758
 20
2.293486
 30
0.0
  0
VERTEX
  5
2B5
100
AcDbEntity
  8
SILKSCREEN
 62
     7
100
AcDbVertex
100
AcDb2dVertex
 10
0.358204
 20
2.293486
 30
0.0
  0
VERTEX
  5
2B6
100
AcDbEntity
  8
SILKSCREEN
 62
     7
100
AcDbVertex
100
AcDb2dVertex
 10
0.358204
 20
2.293486
 30
0.0
  0
VERTEX
  5
2B7
100
AcDbEntity
  8
SILKSCREEN
 62
     7
100
AcDbVertex
100
AcDb2dVertex
 10
0.388693
 20
2.232508
 30
0.0
  0
VERTEX
  5
2B8
100
AcDbEntity
  8
SILKSCREEN
 62
     7
100
AcDbVertex
100
AcDb2dVertex
 10
0.388693
 20
2.141213
 30
0.0
  0
VERTEX
  5
2B9
100
AcDbEntity
  8
SILKSCREEN
 62
     7
100
AcDbVertex
100
AcDb2dVertex
 10
0.388693
 20
2.141213
 30
0.0
  0
SEQEND
  5
2BA
100
AcDbEntity
  8
SILKSCREEN
 62
     7
  0
POLYLINE
  5
263
100
AcDbEntity
  8
SILKSCREEN
 62
     7
100
AcDb2dPolyline
 66
     1
 10
0.0
 20
0.0
 30
0.0
 70
     1
  0
VERTEX
  5
264
100
AcDbEntity
  8
SILKSCREEN
 62
     7
100
AcDbVertex
100
AcDb2dVertex
 10
0.159939
 20
1.820991
 30
0.0
  0
VERTEX
  5
265
100
AcDbEntity
  8
SILKSCREEN
 62
     7
100
AcDbVertex
100
AcDb2dVertex
 10
0.159939
 20
1.500942
 30
0.0
  0
VERTEX
  5
266
100
AcDbEntity
  8
SILKSCREEN
 62
     7
100
AcDbVertex
100
AcDb2dVertex
 10
0.159939
 20
1.500942
 30
0.0
  0
VERTEX
  5
267
100
AcDbEntity
  8
SILKSCREEN
 62
     7
100
AcDbVertex
100
AcDb2dVertex
 10
0.159939
 20
1.500942
 30
0.0
  0
VERTEX
  5
268
100
AcDbEntity
  8
SILKSCREEN
 62
     7
100
AcDbVertex
100
AcDb2dVertex
 10
0.220917
 20
1.592582
 30
0.0
  0
VERTEX
  5
269
100
AcDbEntity
  8
SILKSCREEN
 62
     7
100
AcDbVertex
100
AcDb2dVertex
 10
0.220917
 20
1.592582
 30
0.0
  0
VERTEX
  5
26A
100
AcDbEntity
  8
SILKSCREEN
 62
     7
100
AcDbVertex
100
AcDb2dVertex
 10
0.236247
 20
1.546589
 30
0.0
  0
VERTEX
  5
26B
100
AcDbEntity
  8
SILKSCREEN
 62
     7
100
AcDbVertex
100
AcDb2dVertex
 10
0.251578
 20
1.485784
 30
0.0
  0
VERTEX
  5
26C
100
AcDbEntity
  8
SILKSCREEN
 62
     7
100
AcDbVertex
100
AcDb2dVertex
 10
0.251578
 20
1.485784
 30
0.0
  0
VERTEX
  5
26D
100
AcDbEntity
  8
SILKSCREEN
 62
     7
100
AcDbVertex
100
AcDb2dVertex
 10
0.236247
 20
1.424805
 30
0.0
  0
VERTEX
  5
26E
100
AcDbEntity
  8
SILKSCREEN
 62
     7
100
AcDbVertex
100
AcDb2dVertex
 10
0.220917
 20
1.379158
 30
0.0
  0
VERTEX
  5
26F
100
AcDbEntity
  8
SILKSCREEN
 62
     7
100
AcDbVertex
100
AcDb2dVertex
 10
0.175269
 20
1.348669
 30
0.0
  0
VERTEX
  5
270
100
AcDbEntity
  8
SILKSCREEN
 62
     7
100
AcDbVertex
100
AcDb2dVertex
 10
0.114291
 20
1.31818
 30
0.0
  0
VERTEX
  5
271
100
AcDbEntity
  8
SILKSCREEN
 62
     7
100
AcDbVertex
100
AcDb2dVertex
 10
0.114291
 20
1.790502
 30
0.0
  0
VERTEX
  5
272
100
AcDbEntity
  8
SILKSCREEN
 62
     7
100
AcDbVertex
100
AcDb2dVertex
 10
0.114291
 20
1.790502
 30
0.0
  0
VERTEX
  5
273
100
AcDbEntity
  8
SILKSCREEN
 62
     7
100
AcDbVertex
100
AcDb2dVertex
 10
0.068644
 20
1.790502
 30
0.0
  0
VERTEX
  5
274
100
AcDbEntity
  8
SILKSCREEN
 62
     7
100
AcDbVertex
100
AcDb2dVertex
 10
0.068644
 20
1.790502
 30
0.0
  0
VERTEX
  5
275
100
AcDbEntity
  8
SILKSCREEN
 62
     7
100
AcDbVertex
100
AcDb2dVertex
 10
0.068644
 20
1.790502
 30
0.0
  0
VERTEX
  5
276
100
AcDbEntity
  8
SILKSCREEN
 62
     7
100
AcDbVertex
100
AcDb2dVertex
 10
0.007665
 20
1.775344
 30
0.0
  0
VERTEX
  5
277
100
AcDbEntity
  8
SILKSCREEN
 62
     7
100
AcDbVertex
100
AcDb2dVertex
 10
-0.068644
 20
1.760185
 30
0.0
  0
VERTEX
  5
278
100
AcDbEntity
  8
SILKSCREEN
 62
     7
100
AcDbVertex
100
AcDb2dVertex
 10
-0.129449
 20
1.744855
 30
0.0
  0
VERTEX
  5
279
100
AcDbEntity
  8
SILKSCREEN
 62
     7
100
AcDbVertex
100
AcDb2dVertex
 10
-0.175269
 20
1.714366
 30
0.0
  0
VERTEX
  5
27A
100
AcDbEntity
  8
SILKSCREEN
 62
     7
100
AcDbVertex
100
AcDb2dVertex
 10
-0.220917
 20
1.668546
 30
0.0
  0
VERTEX
  5
27B
100
AcDbEntity
  8
SILKSCREEN
 62
     7
100
AcDbVertex
100
AcDb2dVertex
 10
-0.251406
 20
1.607568
 30
0.0
  0
VERTEX
  5
27C
100
AcDbEntity
  8
SILKSCREEN
 62
     7
100
AcDbVertex
100
AcDb2dVertex
 10
-0.281895
 20
1.546589
 30
0.0
  0
VERTEX
  5
27D
100
AcDbEntity
  8
SILKSCREEN
 62
     7
100
AcDbVertex
100
AcDb2dVertex
 10
-0.281895
 20
1.470625
 30
0.0
  0
VERTEX
  5
27E
100
AcDbEntity
  8
SILKSCREEN
 62
     7
100
AcDbVertex
100
AcDb2dVertex
 10
-0.281895
 20
1.470625
 30
0.0
  0
VERTEX
  5
27F
100
AcDbEntity
  8
SILKSCREEN
 62
     7
100
AcDbVertex
100
AcDb2dVertex
 10
-0.281895
 20
1.394316
 30
0.0
  0
VERTEX
  5
280
100
AcDbEntity
  8
SILKSCREEN
 62
     7
100
AcDbVertex
100
AcDb2dVertex
 10
-0.266737
 20
1.333338
 30
0.0
  0
VERTEX
  5
281
100
AcDbEntity
  8
SILKSCREEN
 62
     7
100
AcDbVertex
100
AcDb2dVertex
 10
-0.220917
 20
1.27236
 30
0.0
  0
VERTEX
  5
282
100
AcDbEntity
  8
SILKSCREEN
 62
     7
100
AcDbVertex
100
AcDb2dVertex
 10
-0.190428
 20
1.226712
 30
0.0
  0
VERTEX
  5
283
100
AcDbEntity
  8
SILKSCREEN
 62
     7
100
AcDbVertex
100
AcDb2dVertex
 10
-0.129449
 20
1.196223
 30
0.0
  0
VERTEX
  5
284
100
AcDbEntity
  8
SILKSCREEN
 62
     7
100
AcDbVertex
100
AcDb2dVertex
 10
-0.083802
 20
1.165734
 30
0.0
  0
VERTEX
  5
285
100
AcDbEntity
  8
SILKSCREEN
 62
     7
100
AcDbVertex
100
AcDb2dVertex
 10
-0.007665
 20
1.150576
 30
0.0
  0
VERTEX
  5
286
100
AcDbEntity
  8
SILKSCREEN
 62
     7
100
AcDbVertex
100
AcDb2dVertex
 10
0.053313
 20
1.135245
 30
0.0
  0
VERTEX
  5
287
100
AcDbEntity
  8
SILKSCREEN
 62
     7
100
AcDbVertex
100
AcDb2dVertex
 10
0.053313
 20
1.135245
 30
0.0
  0
VERTEX
  5
288
100
AcDbEntity
  8
SILKSCREEN
 62
     7
100
AcDbVertex
100
AcDb2dVertex
 10
0.053313
 20
1.135245
 30
0.0
  0
VERTEX
  5
289
100
AcDbEntity
  8
SILKSCREEN
 62
     7
100
AcDbVertex
100
AcDb2dVertex
 10
0.129622
 20
1.150576
 30
0.0
  0
VERTEX
  5
28A
100
AcDbEntity
  8
SILKSCREEN
 62
     7
100
AcDbVertex
100
AcDb2dVertex
 10
0.1906
 20
1.165734
 30
0.0
  0
VERTEX
  5
28B
100
AcDbEntity
  8
SILKSCREEN
 62
     7
100
AcDbVertex
100
AcDb2dVertex
 10
0.251578
 20
1.196223
 30
0.0
  0
VERTEX
  5
28C
100
AcDbEntity
  8
SILKSCREEN
 62
     7
100
AcDbVertex
100
AcDb2dVertex
 10
0.297226
 20
1.241871
 30
0.0
  0
VERTEX
  5
28D
100
AcDbEntity
  8
SILKSCREEN
 62
     7
100
AcDbVertex
100
AcDb2dVertex
 10
0.342873
 20
1.287691
 30
0.0
  0
VERTEX
  5
28E
100
AcDbEntity
  8
SILKSCREEN
 62
     7
100
AcDbVertex
100
AcDb2dVertex
 10
0.373362
 20
1.348669
 30
0.0
  0
VERTEX
  5
28F
100
AcDbEntity
  8
SILKSCREEN
 62
     7
100
AcDbVertex
100
AcDb2dVertex
 10
0.388693
 20
1.409647
 30
0.0
  0
VERTEX
  5
290
100
AcDbEntity
  8
SILKSCREEN
 62
     7
100
AcDbVertex
100
AcDb2dVertex
 10
0.403851
 20
1.485784
 30
0.0
  0
VERTEX
  5
291
100
AcDbEntity
  8
SILKSCREEN
 62
     7
100
AcDbVertex
100
AcDb2dVertex
 10
0.403851
 20
1.485784
 30
0.0
  0
VERTEX
  5
292
100
AcDbEntity
  8
SILKSCREEN
 62
     7
100
AcDbVertex
100
AcDb2dVertex
 10
0.388693
 20
1.577251
 30
0.0
  0
VERTEX
  5
293
100
AcDbEntity
  8
SILKSCREEN
 62
     7
100
AcDbVertex
100
AcDb2dVertex
 10
0.358204
 20
1.65356
 30
0.0
  0
VERTEX
  5
294
100
AcDbEntity
  8
SILKSCREEN
 62
     7
100
AcDbVertex
100
AcDb2dVertex
 10
0.358204
 20
1.65356
 30
0.0
  0
VERTEX
  5
295
100
AcDbEntity
  8
SILKSCREEN
 62
     7
100
AcDbVertex
100
AcDb2dVertex
 10
0.449671
 20
1.65356
 30
0.0
  0
VERTEX
  5
296
100
AcDbEntity
  8
SILKSCREEN
 62
     7
100
AcDbVertex
100
AcDb2dVertex
 10
0.449671
 20
1.668546
 30
0.0
  0
VERTEX
  5
297
100
AcDbEntity
  8
SILKSCREEN
 62
     7
100
AcDbVertex
100
AcDb2dVertex
 10
0.159939
 20
1.820991
 30
0.0
  0
VERTEX
  5
298
100
AcDbEntity
  8
SILKSCREEN
 62
     7
100
AcDbVertex
100
AcDb2dVertex
 10
0.159939
 20
1.820991
 30
0.0
  0
SEQEND
  5
299
100
AcDbEntity
  8
SILKSCREEN
 62
     7
  0
POLYLINE
  5
254
100
AcDbEntity
  8
SILKSCREEN
 62
     7
100
AcDb2dPolyline
 66
     1
 10
0.0
 20
0.0
 30
0.0
 70
     1
  0
VERTEX
  5
255
100
AcDbEntity
  8
SILKSCREEN
 62
     7
100
AcDbVertex
100
AcDb2dVertex
 10
-0.14478
 20
1.470625
 30
0.0
  0
VERTEX
  5
256
100
AcDbEntity
  8
SILKSCREEN
 62
     7
100
AcDbVertex
100
AcDb2dVertex
 10
-0.14478
 20
1.470625
 30
0.0
  0
VERTEX
  5
257
100
AcDbEntity
  8
SILKSCREEN
 62
     7
100
AcDbVertex
100
AcDb2dVertex
 10
-0.129449
 20
1.516273
 30
0.0
  0
VERTEX
  5
258
100
AcDbEntity
  8
SILKSCREEN
 62
     7
100
AcDbVertex
100
AcDb2dVertex
 10
-0.09896
 20
1.56192
 30
0.0
  0
VERTEX
  5
259
100
AcDbEntity
  8
SILKSCREEN
 62
     7
100
AcDbVertex
100
AcDb2dVertex
 10
-0.053313
 20
1.592582
 30
0.0
  0
VERTEX
  5
25A
100
AcDbEntity
  8
SILKSCREEN
 62
     7
100
AcDbVertex
100
AcDb2dVertex
 10
0.007665
 20
1.607568
 30
0.0
  0
VERTEX
  5
25B
100
AcDbEntity
  8
SILKSCREEN
 62
     7
100
AcDbVertex
100
AcDb2dVertex
 10
0.007665
 20
1.31818
 30
0.0
  0
VERTEX
  5
25C
100
AcDbEntity
  8
SILKSCREEN
 62
     7
100
AcDbVertex
100
AcDb2dVertex
 10
0.007665
 20
1.31818
 30
0.0
  0
VERTEX
  5
25D
100
AcDbEntity
  8
SILKSCREEN
 62
     7
100
AcDbVertex
100
AcDb2dVertex
 10
-0.053313
 20
1.333338
 30
0.0
  0
VERTEX
  5
25E
100
AcDbEntity
  8
SILKSCREEN
 62
     7
100
AcDbVertex
100
AcDb2dVertex
 10
-0.09896
 20
1.363827
 30
0.0
  0
VERTEX
  5
25F
100
AcDbEntity
  8
SILKSCREEN
 62
     7
100
AcDbVertex
100
AcDb2dVertex
 10
-0.129449
 20
1.409647
 30
0.0
  0
VERTEX
  5
260
100
AcDbEntity
  8
SILKSCREEN
 62
     7
100
AcDbVertex
100
AcDb2dVertex
 10
-0.14478
 20
1.470625
 30
0.0
  0
VERTEX
  5
261
100
AcDbEntity
  8
SILKSCREEN
 62
     7
100
AcDbVertex
100
AcDb2dVertex
 10
-0.14478
 20
1.470625
 30
0.0
  0
SEQEND
  5
262
100
AcDbEntity
  8
SILKSCREEN
 62
     7
  0
POLYLINE
  5
21E
100
AcDbEntity
  8
SILKSCREEN
 62
     7
100
AcDb2dPolyline
 66
     1
 10
0.0
 20
0.0
 30
0.0
 70
     1
  0
VERTEX
  5
21F
100
AcDbEntity
  8
SILKSCREEN
 62
     7
100
AcDbVertex
100
AcDb2dVertex
 10
0.403851
 20
-1.958278
 30
0.0
  0
VERTEX
  5
220
100
AcDbEntity
  8
SILKSCREEN
 62
     7
100
AcDbVertex
100
AcDb2dVertex
 10
0.403851
 20
-1.958278
 30
0.0
  0
VERTEX
  5
221
100
AcDbEntity
  8
SILKSCREEN
 62
     7
100
AcDbVertex
100
AcDb2dVertex
 10
0.388693
 20
-2.019601
 30
0.0
  0
VERTEX
  5
222
100
AcDbEntity
  8
SILKSCREEN
 62
     7
100
AcDbVertex
100
AcDb2dVertex
 10
0.373362
 20
-2.095738
 30
0.0
  0
VERTEX
  5
223
100
AcDbEntity
  8
SILKSCREEN
 62
     7
100
AcDbVertex
100
AcDb2dVertex
 10
0.342873
 20
-2.141557
 30
0.0
  0
VERTEX
  5
224
100
AcDbEntity
  8
SILKSCREEN
 62
     7
100
AcDbVertex
100
AcDb2dVertex
 10
0.297226
 20
-2.202191
 30
0.0
  0
VERTEX
  5
225
100
AcDbEntity
  8
SILKSCREEN
 62
     7
100
AcDbVertex
100
AcDb2dVertex
 10
0.251578
 20
-2.232853
 30
0.0
  0
VERTEX
  5
226
100
AcDbEntity
  8
SILKSCREEN
 62
     7
100
AcDbVertex
100
AcDb2dVertex
 10
0.1906
 20
-2.263514
 30
0.0
  0
VERTEX
  5
227
100
AcDbEntity
  8
SILKSCREEN
 62
     7
100
AcDbVertex
100
AcDb2dVertex
 10
0.129622
 20
-2.293486
 30
0.0
  0
VERTEX
  5
228
100
AcDbEntity
  8
SILKSCREEN
 62
     7
100
AcDbVertex
100
AcDb2dVertex
 10
0.053313
 20
-2.293486
 30
0.0
  0
VERTEX
  5
229
100
AcDbEntity
  8
SILKSCREEN
 62
     7
100
AcDbVertex
100
AcDb2dVertex
 10
0.053313
 20
-2.293486
 30
0.0
  0
VERTEX
  5
22A
100
AcDbEntity
  8
SILKSCREEN
 62
     7
100
AcDbVertex
100
AcDb2dVertex
 10
0.053313
 20
-2.293486
 30
0.0
  0
VERTEX
  5
22B
100
AcDbEntity
  8
SILKSCREEN
 62
     7
100
AcDbVertex
100
AcDb2dVertex
 10
-0.007665
 20
-2.293486
 30
0.0
  0
VERTEX
  5
22C
100
AcDbEntity
  8
SILKSCREEN
 62
     7
100
AcDbVertex
100
AcDb2dVertex
 10
-0.083802
 20
-2.263514
 30
0.0
  0
VERTEX
  5
22D
100
AcDbEntity
  8
SILKSCREEN
 62
     7
100
AcDbVertex
100
AcDb2dVertex
 10
-0.129449
 20
-2.232853
 30
0.0
  0
VERTEX
  5
22E
100
AcDbEntity
  8
SILKSCREEN
 62
     7
100
AcDbVertex
100
AcDb2dVertex
 10
-0.190428
 20
-2.202191
 30
0.0
  0
VERTEX
  5
22F
100
AcDbEntity
  8
SILKSCREEN
 62
     7
100
AcDbVertex
100
AcDb2dVertex
 10
-0.220917
 20
-2.141557
 30
0.0
  0
VERTEX
  5
230
100
AcDbEntity
  8
SILKSCREEN
 62
     7
100
AcDbVertex
100
AcDb2dVertex
 10
-0.266737
 20
-2.080235
 30
0.0
  0
VERTEX
  5
231
100
AcDbEntity
  8
SILKSCREEN
 62
     7
100
AcDbVertex
100
AcDb2dVertex
 10
-0.281895
 20
-2.019601
 30
0.0
  0
VERTEX
  5
232
100
AcDbEntity
  8
SILKSCREEN
 62
     7
100
AcDbVertex
100
AcDb2dVertex
 10
-0.281895
 20
-1.943464
 30
0.0
  0
VERTEX
  5
233
100
AcDbEntity
  8
SILKSCREEN
 62
     7
100
AcDbVertex
100
AcDb2dVertex
 10
-0.281895
 20
-1.943464
 30
0.0
  0
VERTEX
  5
234
100
AcDbEntity
  8
SILKSCREEN
 62
     7
100
AcDbVertex
100
AcDb2dVertex
 10
-0.281895
 20
-1.866983
 30
0.0
  0
VERTEX
  5
235
100
AcDbEntity
  8
SILKSCREEN
 62
     7
100
AcDbVertex
100
AcDb2dVertex
 10
-0.251406
 20
-1.790847
 30
0.0
  0
VERTEX
  5
236
100
AcDbEntity
  8
SILKSCREEN
 62
     7
100
AcDbVertex
100
AcDb2dVertex
 10
-0.220917
 20
-1.730213
 30
0.0
  0
VERTEX
  5
237
100
AcDbEntity
  8
SILKSCREEN
 62
     7
100
AcDbVertex
100
AcDb2dVertex
 10
-0.175269
 20
-1.684049
 30
0.0
  0
VERTEX
  5
238
100
AcDbEntity
  8
SILKSCREEN
 62
     7
100
AcDbVertex
100
AcDb2dVertex
 10
-0.053313
 20
-1.806005
 30
0.0
  0
VERTEX
  5
239
100
AcDbEntity
  8
SILKSCREEN
 62
     7
100
AcDbVertex
100
AcDb2dVertex
 10
-0.053313
 20
-1.806005
 30
0.0
  0
VERTEX
  5
23A
100
AcDbEntity
  8
SILKSCREEN
 62
     7
100
AcDbVertex
100
AcDb2dVertex
 10
-0.09896
 20
-1.866983
 30
0.0
  0
VERTEX
  5
23B
100
AcDbEntity
  8
SILKSCREEN
 62
     7
100
AcDbVertex
100
AcDb2dVertex
 10
-0.114291
 20
-1.897645
 30
0.0
  0
VERTEX
  5
23C
100
AcDbEntity
  8
SILKSCREEN
 62
     7
100
AcDbVertex
100
AcDb2dVertex
 10
-0.129449
 20
-1.943464
 30
0.0
  0
VERTEX
  5
23D
100
AcDbEntity
  8
SILKSCREEN
 62
     7
100
AcDbVertex
100
AcDb2dVertex
 10
-0.129449
 20
-1.943464
 30
0.0
  0
VERTEX
  5
23E
100
AcDbEntity
  8
SILKSCREEN
 62
     7
100
AcDbVertex
100
AcDb2dVertex
 10
-0.114291
 20
-2.019601
 30
0.0
  0
VERTEX
  5
23F
100
AcDbEntity
  8
SILKSCREEN
 62
     7
100
AcDbVertex
100
AcDb2dVertex
 10
-0.068644
 20
-2.065076
 30
0.0
  0
VERTEX
  5
240
100
AcDbEntity
  8
SILKSCREEN
 62
     7
100
AcDbVertex
100
AcDb2dVertex
 10
-0.022824
 20
-2.095738
 30
0.0
  0
VERTEX
  5
241
100
AcDbEntity
  8
SILKSCREEN
 62
     7
100
AcDbVertex
100
AcDb2dVertex
 10
0.053313
 20
-2.110896
 30
0.0
  0
VERTEX
  5
242
100
AcDbEntity
  8
SILKSCREEN
 62
     7
100
AcDbVertex
100
AcDb2dVertex
 10
0.053313
 20
-2.110896
 30
0.0
  0
VERTEX
  5
243
100
AcDbEntity
  8
SILKSCREEN
 62
     7
100
AcDbVertex
100
AcDb2dVertex
 10
0.053313
 20
-2.110896
 30
0.0
  0
VERTEX
  5
244
100
AcDbEntity
  8
SILKSCREEN
 62
     7
100
AcDbVertex
100
AcDb2dVertex
 10
0.129622
 20
-2.095738
 30
0.0
  0
VERTEX
  5
245
100
AcDbEntity
  8
SILKSCREEN
 62
     7
100
AcDbVertex
100
AcDb2dVertex
 10
0.1906
 20
-2.065076
 30
0.0
  0
VERTEX
  5
246
100
AcDbEntity
  8
SILKSCREEN
 62
     7
100
AcDbVertex
100
AcDb2dVertex
 10
0.220917
 20
-2.019601
 30
0.0
  0
VERTEX
  5
247
100
AcDbEntity
  8
SILKSCREEN
 62
     7
100
AcDbVertex
100
AcDb2dVertex
 10
0.236247
 20
-1.943464
 30
0.0
  0
VERTEX
  5
248
100
AcDbEntity
  8
SILKSCREEN
 62
     7
100
AcDbVertex
100
AcDb2dVertex
 10
0.236247
 20
-1.943464
 30
0.0
  0
VERTEX
  5
249
100
AcDbEntity
  8
SILKSCREEN
 62
     7
100
AcDbVertex
100
AcDb2dVertex
 10
0.236247
 20
-1.897645
 30
0.0
  0
VERTEX
  5
24A
100
AcDbEntity
  8
SILKSCREEN
 62
     7
100
AcDbVertex
100
AcDb2dVertex
 10
0.220917
 20
-1.866983
 30
0.0
  0
VERTEX
  5
24B
100
AcDbEntity
  8
SILKSCREEN
 62
     7
100
AcDbVertex
100
AcDb2dVertex
 10
0.159939
 20
-1.790847
 30
0.0
  0
VERTEX
  5
24C
100
AcDbEntity
  8
SILKSCREEN
 62
     7
100
AcDbVertex
100
AcDb2dVertex
 10
0.281895
 20
-1.684049
 30
0.0
  0
VERTEX
  5
24D
100
AcDbEntity
  8
SILKSCREEN
 62
     7
100
AcDbVertex
100
AcDb2dVertex
 10
0.281895
 20
-1.684049
 30
0.0
  0
VERTEX
  5
24E
100
AcDbEntity
  8
SILKSCREEN
 62
     7
100
AcDbVertex
100
AcDb2dVertex
 10
0.327715
 20
-1.730213
 30
0.0
  0
VERTEX
  5
24F
100
AcDbEntity
  8
SILKSCREEN
 62
     7
100
AcDbVertex
100
AcDb2dVertex
 10
0.358204
 20
-1.790847
 30
0.0
  0
VERTEX
  5
250
100
AcDbEntity
  8
SILKSCREEN
 62
     7
100
AcDbVertex
100
AcDb2dVertex
 10
0.388693
 20
-1.866983
 30
0.0
  0
VERTEX
  5
251
100
AcDbEntity
  8
SILKSCREEN
 62
     7
100
AcDbVertex
100
AcDb2dVertex
 10
0.403851
 20
-1.958278
 30
0.0
  0
VERTEX
  5
252
100
AcDbEntity
  8
SILKSCREEN
 62
     7
100
AcDbVertex
100
AcDb2dVertex
 10
0.403851
 20
-1.958278
 30
0.0
  0
SEQEND
  5
253
100
AcDbEntity
  8
SILKSCREEN
 62
     7
  0
POLYLINE
  5
1E6
100
AcDbEntity
  8
SILKSCREEN
 62
     7
100
AcDb2dPolyline
 66
     1
 10
0.0
 20
0.0
 30
0.0
 70
     1
  0
VERTEX
  5
1E7
100
AcDbEntity
  8
SILKSCREEN
 62
     7
100
AcDbVertex
100
AcDb2dVertex
 10
0.388693
 20
0.052968
 30
0.0
  0
VERTEX
  5
1E8
100
AcDbEntity
  8
SILKSCREEN
 62
     7
100
AcDbVertex
100
AcDb2dVertex
 10
0.022996
 20
0.052968
 30
0.0
  0
VERTEX
  5
1E9
100
AcDbEntity
  8
SILKSCREEN
 62
     7
100
AcDbVertex
100
AcDb2dVertex
 10
0.022996
 20
0.052968
 30
0.0
  0
VERTEX
  5
1EA
100
AcDbEntity
  8
SILKSCREEN
 62
     7
100
AcDbVertex
100
AcDb2dVertex
 10
-0.037982
 20
0.052968
 30
0.0
  0
VERTEX
  5
1EB
100
AcDbEntity
  8
SILKSCREEN
 62
     7
100
AcDbVertex
100
AcDb2dVertex
 10
-0.083802
 20
0.022996
 30
0.0
  0
VERTEX
  5
1EC
100
AcDbEntity
  8
SILKSCREEN
 62
     7
100
AcDbVertex
100
AcDb2dVertex
 10
-0.114291
 20
-0.007665
 30
0.0
  0
VERTEX
  5
1ED
100
AcDbEntity
  8
SILKSCREEN
 62
     7
100
AcDbVertex
100
AcDb2dVertex
 10
-0.114291
 20
-0.053485
 30
0.0
  0
VERTEX
  5
1EE
100
AcDbEntity
  8
SILKSCREEN
 62
     7
100
AcDbVertex
100
AcDb2dVertex
 10
-0.114291
 20
-0.053485
 30
0.0
  0
VERTEX
  5
1EF
100
AcDbEntity
  8
SILKSCREEN
 62
     7
100
AcDbVertex
100
AcDb2dVertex
 10
-0.114291
 20
-0.09896
 30
0.0
  0
VERTEX
  5
1F0
100
AcDbEntity
  8
SILKSCREEN
 62
     7
100
AcDbVertex
100
AcDb2dVertex
 10
-0.083802
 20
-0.129622
 30
0.0
  0
VERTEX
  5
1F1
100
AcDbEntity
  8
SILKSCREEN
 62
     7
100
AcDbVertex
100
AcDb2dVertex
 10
-0.037982
 20
-0.160283
 30
0.0
  0
VERTEX
  5
1F2
100
AcDbEntity
  8
SILKSCREEN
 62
     7
100
AcDbVertex
100
AcDb2dVertex
 10
0.022996
 20
-0.160283
 30
0.0
  0
VERTEX
  5
1F3
100
AcDbEntity
  8
SILKSCREEN
 62
     7
100
AcDbVertex
100
AcDb2dVertex
 10
0.388693
 20
-0.160283
 30
0.0
  0
VERTEX
  5
1F4
100
AcDbEntity
  8
SILKSCREEN
 62
     7
100
AcDbVertex
100
AcDb2dVertex
 10
0.388693
 20
-0.358376
 30
0.0
  0
VERTEX
  5
1F5
100
AcDbEntity
  8
SILKSCREEN
 62
     7
100
AcDbVertex
100
AcDb2dVertex
 10
0.022996
 20
-0.358376
 30
0.0
  0
VERTEX
  5
1F6
100
AcDbEntity
  8
SILKSCREEN
 62
     7
100
AcDbVertex
100
AcDb2dVertex
 10
0.022996
 20
-0.358376
 30
0.0
  0
VERTEX
  5
1F7
100
AcDbEntity
  8
SILKSCREEN
 62
     7
100
AcDbVertex
100
AcDb2dVertex
 10
-0.037982
 20
-0.358376
 30
0.0
  0
VERTEX
  5
1F8
100
AcDbEntity
  8
SILKSCREEN
 62
     7
100
AcDbVertex
100
AcDb2dVertex
 10
-0.083802
 20
-0.389037
 30
0.0
  0
VERTEX
  5
1F9
100
AcDbEntity
  8
SILKSCREEN
 62
     7
100
AcDbVertex
100
AcDb2dVertex
 10
-0.114291
 20
-0.41901
 30
0.0
  0
VERTEX
  5
1FA
100
AcDbEntity
  8
SILKSCREEN
 62
     7
100
AcDbVertex
100
AcDb2dVertex
 10
-0.114291
 20
-0.46483
 30
0.0
  0
VERTEX
  5
1FB
100
AcDbEntity
  8
SILKSCREEN
 62
     7
100
AcDbVertex
100
AcDb2dVertex
 10
-0.114291
 20
-0.46483
 30
0.0
  0
VERTEX
  5
1FC
100
AcDbEntity
  8
SILKSCREEN
 62
     7
100
AcDbVertex
100
AcDb2dVertex
 10
-0.114291
 20
-0.510994
 30
0.0
  0
VERTEX
  5
1FD
100
AcDbEntity
  8
SILKSCREEN
 62
     7
100
AcDbVertex
100
AcDb2dVertex
 10
-0.083802
 20
-0.540966
 30
0.0
  0
VERTEX
  5
1FE
100
AcDbEntity
  8
SILKSCREEN
 62
     7
100
AcDbVertex
100
AcDb2dVertex
 10
-0.037982
 20
-0.571627
 30
0.0
  0
VERTEX
  5
1FF
100
AcDbEntity
  8
SILKSCREEN
 62
     7
100
AcDbVertex
100
AcDb2dVertex
 10
0.022996
 20
-0.571627
 30
0.0
  0
VERTEX
  5
200
100
AcDbEntity
  8
SILKSCREEN
 62
     7
100
AcDbVertex
100
AcDb2dVertex
 10
0.388693
 20
-0.571627
 30
0.0
  0
VERTEX
  5
201
100
AcDbEntity
  8
SILKSCREEN
 62
     7
100
AcDbVertex
100
AcDb2dVertex
 10
0.388693
 20
-0.76972
 30
0.0
  0
VERTEX
  5
202
100
AcDbEntity
  8
SILKSCREEN
 62
     7
100
AcDbVertex
100
AcDb2dVertex
 10
-0.281895
 20
-0.76972
 30
0.0
  0
VERTEX
  5
203
100
AcDbEntity
  8
SILKSCREEN
 62
     7
100
AcDbVertex
100
AcDb2dVertex
 10
-0.281895
 20
-0.571627
 30
0.0
  0
VERTEX
  5
204
100
AcDbEntity
  8
SILKSCREEN
 62
     7
100
AcDbVertex
100
AcDb2dVertex
 10
-0.175269
 20
-0.571627
 30
0.0
  0
VERTEX
  5
205
100
AcDbEntity
  8
SILKSCREEN
 62
     7
100
AcDbVertex
100
AcDb2dVertex
 10
-0.175269
 20
-0.571627
 30
0.0
  0
VERTEX
  5
206
100
AcDbEntity
  8
SILKSCREEN
 62
     7
100
AcDbVertex
100
AcDb2dVertex
 10
-0.220917
 20
-0.540966
 30
0.0
  0
VERTEX
  5
207
100
AcDbEntity
  8
SILKSCREEN
 62
     7
100
AcDbVertex
100
AcDb2dVertex
 10
-0.251406
 20
-0.495491
 30
0.0
  0
VERTEX
  5
208
100
AcDbEntity
  8
SILKSCREEN
 62
     7
100
AcDbVertex
100
AcDb2dVertex
 10
-0.281895
 20
-0.449671
 30
0.0
  0
VERTEX
  5
209
100
AcDbEntity
  8
SILKSCREEN
 62
     7
100
AcDbVertex
100
AcDb2dVertex
 10
-0.281895
 20
-0.389037
 30
0.0
  0
VERTEX
  5
20A
100
AcDbEntity
  8
SILKSCREEN
 62
     7
100
AcDbVertex
100
AcDb2dVertex
 10
-0.281895
 20
-0.389037
 30
0.0
  0
VERTEX
  5
20B
100
AcDbEntity
  8
SILKSCREEN
 62
     7
100
AcDbVertex
100
AcDb2dVertex
 10
-0.281895
 20
-0.327715
 30
0.0
  0
VERTEX
  5
20C
100
AcDbEntity
  8
SILKSCREEN
 62
     7
100
AcDbVertex
100
AcDb2dVertex
 10
-0.266737
 20
-0.267081
 30
0.0
  0
VERTEX
  5
20D
100
AcDbEntity
  8
SILKSCREEN
 62
     7
100
AcDbVertex
100
AcDb2dVertex
 10
-0.220917
 20
-0.220917
 30
0.0
  0
VERTEX
  5
20E
100
AcDbEntity
  8
SILKSCREEN
 62
     7
100
AcDbVertex
100
AcDb2dVertex
 10
-0.175269
 20
-0.1906
 30
0.0
  0
VERTEX
  5
20F
100
AcDbEntity
  8
SILKSCREEN
 62
     7
100
AcDbVertex
100
AcDb2dVertex
 10
-0.175269
 20
-0.1906
 30
0.0
  0
VERTEX
  5
210
100
AcDbEntity
  8
SILKSCREEN
 62
     7
100
AcDbVertex
100
AcDb2dVertex
 10
-0.220917
 20
-0.145125
 30
0.0
  0
VERTEX
  5
211
100
AcDbEntity
  8
SILKSCREEN
 62
     7
100
AcDbVertex
100
AcDb2dVertex
 10
-0.266737
 20
-0.09896
 30
0.0
  0
VERTEX
  5
212
100
AcDbEntity
  8
SILKSCREEN
 62
     7
100
AcDbVertex
100
AcDb2dVertex
 10
-0.281895
 20
-0.038327
 30
0.0
  0
VERTEX
  5
213
100
AcDbEntity
  8
SILKSCREEN
 62
     7
100
AcDbVertex
100
AcDb2dVertex
 10
-0.281895
 20
0.022996
 30
0.0
  0
VERTEX
  5
214
100
AcDbEntity
  8
SILKSCREEN
 62
     7
100
AcDbVertex
100
AcDb2dVertex
 10
-0.281895
 20
0.022996
 30
0.0
  0
VERTEX
  5
215
100
AcDbEntity
  8
SILKSCREEN
 62
     7
100
AcDbVertex
100
AcDb2dVertex
 10
-0.266737
 20
0.114291
 30
0.0
  0
VERTEX
  5
216
100
AcDbEntity
  8
SILKSCREEN
 62
     7
100
AcDbVertex
100
AcDb2dVertex
 10
-0.251406
 20
0.144608
 30
0.0
  0
VERTEX
  5
217
100
AcDbEntity
  8
SILKSCREEN
 62
     7
100
AcDbVertex
100
AcDb2dVertex
 10
-0.220917
 20
0.190428
 30
0.0
  0
VERTEX
  5
218
100
AcDbEntity
  8
SILKSCREEN
 62
     7
100
AcDbVertex
100
AcDb2dVertex
 10
-0.190428
 20
0.205586
 30
0.0
  0
VERTEX
  5
219
100
AcDbEntity
  8
SILKSCREEN
 62
     7
100
AcDbVertex
100
AcDb2dVertex
 10
-0.14478
 20
0.220744
 30
0.0
  0
VERTEX
  5
21A
100
AcDbEntity
  8
SILKSCREEN
 62
     7
100
AcDbVertex
100
AcDb2dVertex
 10
-0.037982
 20
0.236247
 30
0.0
  0
VERTEX
  5
21B
100
AcDbEntity
  8
SILKSCREEN
 62
     7
100
AcDbVertex
100
AcDb2dVertex
 10
0.388693
 20
0.236247
 30
0.0
  0
VERTEX
  5
21C
100
AcDbEntity
  8
SILKSCREEN
 62
     7
100
AcDbVertex
100
AcDb2dVertex
 10
0.388693
 20
0.052968
 30
0.0
  0
SEQEND
  5
21D
100
AcDbEntity
  8
SILKSCREEN
 62
     7
  0
POLYLINE
  5
1BC
100
AcDbEntity
  8
SILKSCREEN
 62
     7
100
AcDb2dPolyline
 66
     1
 10
0.0
 20
0.0
 30
0.0
 70
     1
  0
VERTEX
  5
1BD
100
AcDbEntity
  8
SILKSCREEN
 62
     7
100
AcDbVertex
100
AcDb2dVertex
 10
0.403851
 20
-1.257546
 30
0.0
  0
VERTEX
  5
1BE
100
AcDbEntity
  8
SILKSCREEN
 62
     7
100
AcDbVertex
100
AcDb2dVertex
 10
0.403851
 20
-1.257546
 30
0.0
  0
VERTEX
  5
1BF
100
AcDbEntity
  8
SILKSCREEN
 62
     7
100
AcDbVertex
100
AcDb2dVertex
 10
0.388693
 20
-1.333683
 30
0.0
  0
VERTEX
  5
1C0
100
AcDbEntity
  8
SILKSCREEN
 62
     7
100
AcDbVertex
100
AcDb2dVertex
 10
0.373362
 20
-1.394661
 30
0.0
  0
VERTEX
  5
1C1
100
AcDbEntity
  8
SILKSCREEN
 62
     7
100
AcDbVertex
100
AcDb2dVertex
 10
0.342873
 20
-1.455639
 30
0.0
  0
VERTEX
  5
1C2
100
AcDbEntity
  8
SILKSCREEN
 62
     7
100
AcDbVertex
100
AcDb2dVertex
 10
0.297226
 20
-1.516273
 30
0.0
  0
VERTEX
  5
1C3
100
AcDbEntity
  8
SILKSCREEN
 62
     7
100
AcDbVertex
100
AcDb2dVertex
 10
0.251578
 20
-1.546934
 30
0.0
  0
VERTEX
  5
1C4
100
AcDbEntity
  8
SILKSCREEN
 62
     7
100
AcDbVertex
100
AcDb2dVertex
 10
0.1906
 20
-1.577595
 30
0.0
  0
VERTEX
  5
1C5
100
AcDbEntity
  8
SILKSCREEN
 62
     7
100
AcDbVertex
100
AcDb2dVertex
 10
0.129622
 20
-1.608257
 30
0.0
  0
VERTEX
  5
1C6
100
AcDbEntity
  8
SILKSCREEN
 62
     7
100
AcDbVertex
100
AcDb2dVertex
 10
0.053313
 20
-1.608257
 30
0.0
  0
VERTEX
  5
1C7
100
AcDbEntity
  8
SILKSCREEN
 62
     7
100
AcDbVertex
100
AcDb2dVertex
 10
0.053313
 20
-1.608257
 30
0.0
  0
VERTEX
  5
1C8
100
AcDbEntity
  8
SILKSCREEN
 62
     7
100
AcDbVertex
100
AcDb2dVertex
 10
0.053313
 20
-1.608257
 30
0.0
  0
VERTEX
  5
1C9
100
AcDbEntity
  8
SILKSCREEN
 62
     7
100
AcDbVertex
100
AcDb2dVertex
 10
-0.007665
 20
-1.608257
 30
0.0
  0
VERTEX
  5
1CA
100
AcDbEntity
  8
SILKSCREEN
 62
     7
100
AcDbVertex
100
AcDb2dVertex
 10
-0.083802
 20
-1.577595
 30
0.0
  0
VERTEX
  5
1CB
100
AcDbEntity
  8
SILKSCREEN
 62
     7
100
AcDbVertex
100
AcDb2dVertex
 10
-0.129449
 20
-1.546934
 30
0.0
  0
VERTEX
  5
1CC
100
AcDbEntity
  8
SILKSCREEN
 62
     7
100
AcDbVertex
100
AcDb2dVertex
 10
-0.190428
 20
-1.516273
 30
0.0
  0
VERTEX
  5
1CD
100
AcDbEntity
  8
SILKSCREEN
 62
     7
100
AcDbVertex
100
AcDb2dVertex
 10
-0.236075
 20
-1.455639
 30
0.0
  0
VERTEX
  5
1CE
100
AcDbEntity
  8
SILKSCREEN
 62
     7
100
AcDbVertex
100
AcDb2dVertex
 10
-0.266737
 20
-1.394661
 30
0.0
  0
VERTEX
  5
1CF
100
AcDbEntity
  8
SILKSCREEN
 62
     7
100
AcDbVertex
100
AcDb2dVertex
 10
-0.281895
 20
-1.333683
 30
0.0
  0
VERTEX
  5
1D0
100
AcDbEntity
  8
SILKSCREEN
 62
     7
100
AcDbVertex
100
AcDb2dVertex
 10
-0.281895
 20
-1.257546
 30
0.0
  0
VERTEX
  5
1D1
100
AcDbEntity
  8
SILKSCREEN
 62
     7
100
AcDbVertex
100
AcDb2dVertex
 10
-0.281895
 20
-1.257546
 30
0.0
  0
VERTEX
  5
1D2
100
AcDbEntity
  8
SILKSCREEN
 62
     7
100
AcDbVertex
100
AcDb2dVertex
 10
-0.281895
 20
-1.181409
 30
0.0
  0
VERTEX
  5
1D3
100
AcDbEntity
  8
SILKSCREEN
 62
     7
100
AcDbVertex
100
AcDb2dVertex
 10
-0.266737
 20
-1.104928
 30
0.0
  0
VERTEX
  5
1D4
100
AcDbEntity
  8
SILKSCREEN
 62
     7
100
AcDbVertex
100
AcDb2dVertex
 10
-0.236075
 20
-1.044295
 30
0.0
  0
VERTEX
  5
1D5
100
AcDbEntity
  8
SILKSCREEN
 62
     7
100
AcDbVertex
100
AcDb2dVertex
 10
-0.190428
 20
-0.998475
 30
0.0
  0
VERTEX
  5
1D6
100
AcDbEntity
  8
SILKSCREEN
 62
     7
100
AcDbVertex
100
AcDb2dVertex
 10
-0.14478
 20
-0.952655
 30
0.0
  0
VERTEX
  5
1D7
100
AcDbEntity
  8
SILKSCREEN
 62
     7
100
AcDbVertex
100
AcDb2dVertex
 10
-0.083802
 20
-0.922338
 30
0.0
  0
VERTEX
  5
1D8
100
AcDbEntity
  8
SILKSCREEN
 62
     7
100
AcDbVertex
100
AcDb2dVertex
 10
-0.022824
 20
-0.906835
 30
0.0
  0
VERTEX
  5
1D9
100
AcDbEntity
  8
SILKSCREEN
 62
     7
100
AcDbVertex
100
AcDb2dVertex
 10
0.053313
 20
-0.891677
 30
0.0
  0
VERTEX
  5
1DA
100
AcDbEntity
  8
SILKSCREEN
 62
     7
100
AcDbVertex
100
AcDb2dVertex
 10
0.053313
 20
-0.891677
 30
0.0
  0
VERTEX
  5
1DB
100
AcDbEntity
  8
SILKSCREEN
 62
     7
100
AcDbVertex
100
AcDb2dVertex
 10
0.053313
 20
-0.891677
 30
0.0
  0
VERTEX
  5
1DC
100
AcDbEntity
  8
SILKSCREEN
 62
     7
100
AcDbVertex
100
AcDb2dVertex
 10
0.129622
 20
-0.906835
 30
0.0
  0
VERTEX
  5
1DD
100
AcDbEntity
  8
SILKSCREEN
 62
     7
100
AcDbVertex
100
AcDb2dVertex
 10
0.1906
 20
-0.922338
 30
0.0
  0
VERTEX
  5
1DE
100
AcDbEntity
  8
SILKSCREEN
 62
     7
100
AcDbVertex
100
AcDb2dVertex
 10
0.251578
 20
-0.952655
 30
0.0
  0
VERTEX
  5
1DF
100
AcDbEntity
  8
SILKSCREEN
 62
     7
100
AcDbVertex
100
AcDb2dVertex
 10
0.297226
 20
-0.998475
 30
0.0
  0
VERTEX
  5
1E0
100
AcDbEntity
  8
SILKSCREEN
 62
     7
100
AcDbVertex
100
AcDb2dVertex
 10
0.342873
 20
-1.059453
 30
0.0
  0
VERTEX
  5
1E1
100
AcDbEntity
  8
SILKSCREEN
 62
     7
100
AcDbVertex
100
AcDb2dVertex
 10
0.373362
 20
-1.120431
 30
0.0
  0
VERTEX
  5
1E2
100
AcDbEntity
  8
SILKSCREEN
 62
     7
100
AcDbVertex
100
AcDb2dVertex
 10
0.388693
 20
-1.181409
 30
0.0
  0
VERTEX
  5
1E3
100
AcDbEntity
  8
SILKSCREEN
 62
     7
100
AcDbVertex
100
AcDb2dVertex
 10
0.403851
 20
-1.257546
 30
0.0
  0
VERTEX
  5
1E4
100
AcDbEntity
  8
SILKSCREEN
 62
     7
100
AcDbVertex
100
AcDb2dVertex
 10
0.403851
 20
-1.257546
 30
0.0
  0
SEQEND
  5
1E5
100
AcDbEntity
  8
SILKSCREEN
 62
     7
  0
POLYLINE
  5
1A3
100
AcDbEntity
  8
SILKSCREEN
 62
     7
100
AcDb2dPolyline
 66
     1
 10
0.0
 20
0.0
 30
0.0
 70
     1
  0
VERTEX
  5
1A4
100
AcDbEntity
  8
SILKSCREEN
 62
     7
100
AcDbVertex
100
AcDb2dVertex
 10
0.053313
 20
-1.08977
 30
0.0
  0
VERTEX
  5
1A5
100
AcDbEntity
  8
SILKSCREEN
 62
     7
100
AcDbVertex
100
AcDb2dVertex
 10
0.053313
 20
-1.08977
 30
0.0
  0
VERTEX
  5
1A6
100
AcDbEntity
  8
SILKSCREEN
 62
     7
100
AcDbVertex
100
AcDb2dVertex
 10
-0.007665
 20
-1.08977
 30
0.0
  0
VERTEX
  5
1A7
100
AcDbEntity
  8
SILKSCREEN
 62
     7
100
AcDbVertex
100
AcDb2dVertex
 10
-0.068644
 20
-1.13559
 30
0.0
  0
VERTEX
  5
1A8
100
AcDbEntity
  8
SILKSCREEN
 62
     7
100
AcDbVertex
100
AcDb2dVertex
 10
-0.114291
 20
-1.181409
 30
0.0
  0
VERTEX
  5
1A9
100
AcDbEntity
  8
SILKSCREEN
 62
     7
100
AcDbVertex
100
AcDb2dVertex
 10
-0.129449
 20
-1.257546
 30
0.0
  0
VERTEX
  5
1AA
100
AcDbEntity
  8
SILKSCREEN
 62
     7
100
AcDbVertex
100
AcDb2dVertex
 10
-0.129449
 20
-1.257546
 30
0.0
  0
VERTEX
  5
1AB
100
AcDbEntity
  8
SILKSCREEN
 62
     7
100
AcDbVertex
100
AcDb2dVertex
 10
-0.114291
 20
-1.333683
 30
0.0
  0
VERTEX
  5
1AC
100
AcDbEntity
  8
SILKSCREEN
 62
     7
100
AcDbVertex
100
AcDb2dVertex
 10
-0.068644
 20
-1.379502
 30
0.0
  0
VERTEX
  5
1AD
100
AcDbEntity
  8
SILKSCREEN
 62
     7
100
AcDbVertex
100
AcDb2dVertex
 10
-0.022824
 20
-1.409819
 30
0.0
  0
VERTEX
  5
1AE
100
AcDbEntity
  8
SILKSCREEN
 62
     7
100
AcDbVertex
100
AcDb2dVertex
 10
0.053313
 20
-1.424978
 30
0.0
  0
VERTEX
  5
1AF
100
AcDbEntity
  8
SILKSCREEN
 62
     7
100
AcDbVertex
100
AcDb2dVertex
 10
0.053313
 20
-1.424978
 30
0.0
  0
VERTEX
  5
1B0
100
AcDbEntity
  8
SILKSCREEN
 62
     7
100
AcDbVertex
100
AcDb2dVertex
 10
0.053313
 20
-1.424978
 30
0.0
  0
VERTEX
  5
1B1
100
AcDbEntity
  8
SILKSCREEN
 62
     7
100
AcDbVertex
100
AcDb2dVertex
 10
0.129622
 20
-1.409819
 30
0.0
  0
VERTEX
  5
1B2
100
AcDbEntity
  8
SILKSCREEN
 62
     7
100
AcDbVertex
100
AcDb2dVertex
 10
0.1906
 20
-1.379502
 30
0.0
  0
VERTEX
  5
1B3
100
AcDbEntity
  8
SILKSCREEN
 62
     7
100
AcDbVertex
100
AcDb2dVertex
 10
0.220917
 20
-1.31818
 30
0.0
  0
VERTEX
  5
1B4
100
AcDbEntity
  8
SILKSCREEN
 62
     7
100
AcDbVertex
100
AcDb2dVertex
 10
0.236247
 20
-1.257546
 30
0.0
  0
VERTEX
  5
1B5
100
AcDbEntity
  8
SILKSCREEN
 62
     7
100
AcDbVertex
100
AcDb2dVertex
 10
0.236247
 20
-1.257546
 30
0.0
  0
VERTEX
  5
1B6
100
AcDbEntity
  8
SILKSCREEN
 62
     7
100
AcDbVertex
100
AcDb2dVertex
 10
0.220917
 20
-1.181409
 30
0.0
  0
VERTEX
  5
1B7
100
AcDbEntity
  8
SILKSCREEN
 62
     7
100
AcDbVertex
100
AcDb2dVertex
 10
0.1906
 20
-1.13559
 30
0.0
  0
VERTEX
  5
1B8
100
AcDbEntity
  8
SILKSCREEN
 62
     7
100
AcDbVertex
100
AcDb2dVertex
 10
0.129622
 20
-1.08977
 30
0.0
  0
VERTEX
  5
1B9
100
AcDbEntity
  8
SILKSCREEN
 62
     7
100
AcDbVertex
100
AcDb2dVertex
 10
0.053313
 20
-1.08977
 30
0.0
  0
VERTEX
  5
1BA
100
AcDbEntity
  8
SILKSCREEN
 62
     7
100
AcDbVertex
100
AcDb2dVertex
 10
0.053313
 20
-1.08977
 30
0.0
  0
SEQEND
  5
1BB
100
AcDbEntity
  8
SILKSCREEN
 62
     7
  0
ENDBLK
  5
2DD
100
AcDbEntity
  8
SILKSCREEN
100
AcDbBlockEnd
  0
ENDSEC
  0
SECTION
  2
ENTITIES
  0
LINE
  5
3ED
100
AcDbEntity
  8
CROP_MARKS
 62
     7
100
AcDbLine
 10
13.36387
 20
17.008092
 30
0.0
 11
13.36387
 21
17.495573
 31
0.0
  0
LINE
  5
3EC
100
AcDbEntity
  8
CROP_MARKS
 62
     7
100
AcDbLine
 10
13.60761
 20
17.25166
 30
0.0
 11
13.120302
 21
17.25166
 31
0.0
  0
LINE
  5
3EB
100
AcDbEntity
  8
CROP_MARKS
 62
     7
100
AcDbLine
 10
13.36387
 20
39.990841
 30
0.0
 11
13.36387
 21
40.478149
 31
0.0
  0
LINE
  5
3EA
100
AcDbEntity
  8
CROP_MARKS
 62
     7
100
AcDbLine
 10
13.60761
 20
40.234409
 30
0.0
 11
13.120302
 21
40.234409
 31
0.0
  0
LINE
  5
3E9
100
AcDbEntity
  8
CROP_MARKS
 62
     7
100
AcDbLine
 10
14.240647
 20
29.479682
 30
0.0
 11
14.727955
 21
29.479682
 31
0.0
  0
LINE
  5
3E8
100
AcDbEntity
  8
CROP_MARKS
 62
     7
100
AcDbLine
 10
14.484215
 20
29.235769
 30
0.0
 11
14.484215
 21
29.72325
 31
0.0
  0
LINE
  5
3E7
100
AcDbEntity
  8
CROP_MARKS
 62
     7
100
AcDbLine
 10
8.140933
 20
28.802721
 30
0.0
 11
8.140933
 21
30.156299
 31
0.0
  0
LINE
  5
3E6
100
AcDbEntity
  8
CROP_MARKS
 62
     7
100
AcDbLine
 10
7.464316
 20
29.479682
 30
0.0
 11
8.817894
 21
29.479682
 31
0.0
  0
LINE
  5
3E5
100
AcDbEntity
  8
CROP_MARKS
 62
     7
100
AcDbLine
 10
2.43396
 20
21.479137
 30
0.0
 11
2.43396
 21
22.833059
 31
0.0
  0
LINE
  5
3E4
100
AcDbEntity
  8
CROP_MARKS
 62
     7
100
AcDbLine
 10
2.43396
 20
21.479137
 30
0.0
 11
3.787538
 21
21.479137
 31
0.0
  0
LINE
  5
3E3
100
AcDbEntity
  8
CROP_MARKS
 62
     7
100
AcDbLine
 10
13.36387
 20
17.008092
 30
0.0
 11
13.36387
 21
17.495573
 31
0.0
  0
LINE
  5
3E2
100
AcDbEntity
  8
CROP_MARKS
 62
     7
100
AcDbLine
 10
13.60761
 20
17.25166
 30
0.0
 11
13.120302
 21
17.25166
 31
0.0
  0
LINE
  5
3E1
100
AcDbEntity
  8
CROP_MARKS
 62
     7
100
AcDbLine
 10
1.015786
 20
16.82688
 30
0.0
 11
2.369364
 21
16.82688
 31
0.0
  0
LINE
  5
3E0
100
AcDbEntity
  8
CROP_MARKS
 62
     7
100
AcDbLine
 10
13.913535
 20
16.82688
 30
0.0
 11
15.267113
 21
16.82688
 31
0.0
  0
LINE
  5
3DF
100
AcDbEntity
  8
CROP_MARKS
 62
     7
100
AcDbLine
 10
1.015786
 20
19.758656
 30
0.0
 11
2.369364
 21
19.758656
 31
0.0
  0
LINE
  5
3DE
100
AcDbEntity
  8
CROP_MARKS
 62
     7
100
AcDbLine
 10
13.913535
 20
19.758656
 30
0.0
 11
15.267113
 21
19.758656
 31
0.0
  0
LINE
  5
3DD
100
AcDbEntity
  8
CROP_MARKS
 62
     7
100
AcDbLine
 10
1.015786
 20
16.82688
 30
0.0
 11
1.015786
 21
18.180113
 31
0.0
  0
LINE
  5
3DC
100
AcDbEntity
  8
CROP_MARKS
 62
     7
100
AcDbLine
 10
1.015786
 20
18.404734
 30
0.0
 11
1.015786
 21
19.758656
 31
0.0
  0
LINE
  5
3DB
100
AcDbEntity
  8
CROP_MARKS
 62
     7
100
AcDbLine
 10
15.267113
 20
16.82688
 30
0.0
 11
15.267113
 21
18.180113
 31
0.0
  0
LINE
  5
3DA
100
AcDbEntity
  8
CROP_MARKS
 62
     7
100
AcDbLine
 10
15.267113
 20
18.404734
 30
0.0
 11
15.267113
 21
19.758656
 31
0.0
  0
LINE
  5
3D9
100
AcDbEntity
  8
CROP_MARKS
 62
     7
100
AcDbLine
 10
13.840499
 20
42.811857
 30
0.0
 11
12.486576
 21
42.811857
 31
0.0
  0
LINE
  5
3D8
100
AcDbEntity
  8
CROP_MARKS
 62
     7
100
AcDbLine
 10
3.796151
 20
42.811857
 30
0.0
 11
2.442573
 21
42.811857
 31
0.0
  0
LINE
  5
3D7
100
AcDbEntity
  8
CROP_MARKS
 62
     7
100
AcDbLine
 10
13.840499
 20
39.879909
 30
0.0
 11
12.486576
 21
39.879909
 31
0.0
  0
LINE
  5
3D6
100
AcDbEntity
  8
CROP_MARKS
 62
     7
100
AcDbLine
 10
3.796151
 20
39.879909
 30
0.0
 11
2.442573
 21
39.879909
 31
0.0
  0
LINE
  5
3D5
100
AcDbEntity
  8
CROP_MARKS
 62
     7
100
AcDbLine
 10
2.442573
 20
39.879909
 30
0.0
 11
2.442573
 21
41.233487
 31
0.0
  0
LINE
  5
3D4
100
AcDbEntity
  8
CROP_MARKS
 62
     7
100
AcDbLine
 10
2.442573
 20
41.458107
 30
0.0
 11
2.442573
 21
42.811857
 31
0.0
  0
LINE
  5
3D3
100
AcDbEntity
  8
CROP_MARKS
 62
     7
100
AcDbLine
 10
13.840499
 20
39.879909
 30
0.0
 11
13.840499
 21
41.233487
 31
0.0
  0
LINE
  5
3D2
100
AcDbEntity
  8
CROP_MARKS
 62
     7
100
AcDbLine
 10
13.840499
 20
41.458107
 30
0.0
 11
13.840499
 21
42.811857
 31
0.0
  0
LINE
  5
3D1
100
AcDbEntity
  8
CROP_MARKS
 62
     7
100
AcDbLine
 10
2.919029
 20
17.008092
 30
0.0
 11
2.919029
 21
17.495573
 31
0.0
  0
LINE
  5
3D0
100
AcDbEntity
  8
CROP_MARKS
 62
     7
100
AcDbLine
 10
3.16277
 20
17.25166
 30
0.0
 11
2.675289
 21
17.25166
 31
0.0
  0
LINE
  5
3CF
100
AcDbEntity
  8
CROP_MARKS
 62
     7
100
AcDbLine
 10
2.919029
 20
19.160243
 30
0.0
 11
2.919029
 21
19.647724
 31
0.0
  0
LINE
  5
3CE
100
AcDbEntity
  8
CROP_MARKS
 62
     7
100
AcDbLine
 10
3.16277
 20
19.403811
 30
0.0
 11
2.675289
 21
19.403811
 31
0.0
  0
LINE
  5
3CD
100
AcDbEntity
  8
CROP_MARKS
 62
     7
100
AcDbLine
 10
13.36387
 20
19.160243
 30
0.0
 11
13.36387
 21
19.647724
 31
0.0
  0
LINE
  5
3CC
100
AcDbEntity
  8
CROP_MARKS
 62
     7
100
AcDbLine
 10
13.60761
 20
19.403811
 30
0.0
 11
13.120302
 21
19.403811
 31
0.0
  0
LINE
  5
3CB
100
AcDbEntity
  8
CROP_MARKS
 62
     7
100
AcDbLine
 10
2.919029
 20
39.990841
 30
0.0
 11
2.919029
 21
40.478149
 31
0.0
  0
LINE
  5
3CA
100
AcDbEntity
  8
CROP_MARKS
 62
     7
100
AcDbLine
 10
3.16277
 20
40.234409
 30
0.0
 11
2.675289
 21
40.234409
 31
0.0
  0
LINE
  5
3C9
100
AcDbEntity
  8
CROP_MARKS
 62
     7
100
AcDbLine
 10
2.919029
 20
42.143164
 30
0.0
 11
2.919029
 21
42.630473
 31
0.0
  0
LINE
  5
3C8
100
AcDbEntity
  8
CROP_MARKS
 62
     7
100
AcDbLine
 10
3.16277
 20
42.386732
 30
0.0
 11
2.675289
 21
42.386732
 31
0.0
  0
LINE
  5
3C7
100
AcDbEntity
  8
CROP_MARKS
 62
     7
100
AcDbLine
 10
13.36387
 20
39.990841
 30
0.0
 11
13.36387
 21
40.478149
 31
0.0
  0
LINE
  5
3C6
100
AcDbEntity
  8
CROP_MARKS
 62
     7
100
AcDbLine
 10
13.60761
 20
40.234409
 30
0.0
 11
13.120302
 21
40.234409
 31
0.0
  0
LINE
  5
3C5
100
AcDbEntity
  8
CROP_MARKS
 62
     7
100
AcDbLine
 10
13.36387
 20
42.143164
 30
0.0
 11
13.36387
 21
42.630473
 31
0.0
  0
LINE
  5
3C4
100
AcDbEntity
  8
CROP_MARKS
 62
     7
100
AcDbLine
 10
13.60761
 20
42.386732
 30
0.0
 11
13.120302
 21
42.386732
 31
0.0
  0
LINE
  5
3C3
100
AcDbEntity
  8
CROP_MARKS
 62
     7
100
AcDbLine
 10
8.615323
 20
41.466375
 30
0.0
 11
8.615323
 21
41.127894
 31
0.0
  0
LINE
  5
3C2
100
AcDbEntity
  8
CROP_MARKS
 62
     7
100
AcDbLine
 10
8.615323
 20
41.127894
 30
0.0
 11
8.953803
 21
41.127894
 31
0.0
  0
LINE
  5
3C1
100
AcDbEntity
  8
CROP_MARKS
 62
     7
100
AcDbLine
 10
8.615323
 20
41.669291
 30
0.0
 11
8.615323
 21
42.007772
 31
0.0
  0
LINE
  5
3C0
100
AcDbEntity
  8
CROP_MARKS
 62
     7
100
AcDbLine
 10
8.615323
 20
42.007772
 30
0.0
 11
8.953803
 21
42.007772
 31
0.0
  0
LINE
  5
3BF
100
AcDbEntity
  8
CROP_MARKS
 62
     7
100
AcDbLine
 10
11.119562
 20
42.007772
 30
0.0
 11
11.457871
 21
42.007772
 31
0.0
  0
LINE
  5
3BE
100
AcDbEntity
  8
CROP_MARKS
 62
     7
100
AcDbLine
 10
11.457871
 20
42.007772
 30
0.0
 11
11.457871
 21
41.669291
 31
0.0
  0
LINE
  5
3BD
100
AcDbEntity
  8
CROP_MARKS
 62
     7
100
AcDbLine
 10
11.457871
 20
41.466375
 30
0.0
 11
11.457871
 21
41.127894
 31
0.0
  0
LINE
  5
3BC
100
AcDbEntity
  8
CROP_MARKS
 62
     7
100
AcDbLine
 10
11.457871
 20
41.127894
 30
0.0
 11
11.119562
 21
41.127894
 31
0.0
  0
LINE
  5
3BB
100
AcDbEntity
  8
CROP_MARKS
 62
     7
100
AcDbLine
 10
11.864048
 20
41.195591
 30
0.0
 11
11.864048
 21
40.85711
 31
0.0
  0
LINE
  5
3BA
100
AcDbEntity
  8
CROP_MARKS
 62
     7
100
AcDbLine
 10
11.864048
 20
40.85711
 30
0.0
 11
12.202528
 21
40.85711
 31
0.0
  0
LINE
  5
3B9
100
AcDbEntity
  8
CROP_MARKS
 62
     7
100
AcDbLine
 10
11.864048
 20
41.669291
 30
0.0
 11
11.864048
 21
42.007772
 31
0.0
  0
LINE
  5
3B8
100
AcDbEntity
  8
CROP_MARKS
 62
     7
100
AcDbLine
 10
11.864048
 20
42.007772
 30
0.0
 11
12.202528
 21
42.007772
 31
0.0
  0
LINE
  5
3B7
100
AcDbEntity
  8
CROP_MARKS
 62
     7
100
AcDbLine
 10
12.879317
 20
42.007772
 30
0.0
 11
13.217626
 21
42.007772
 31
0.0
  0
LINE
  5
3B6
100
AcDbEntity
  8
CROP_MARKS
 62
     7
100
AcDbLine
 10
13.217626
 20
42.007772
 30
0.0
 11
13.217626
 21
41.669291
 31
0.0
  0
LINE
  5
3B5
100
AcDbEntity
  8
CROP_MARKS
 62
     7
100
AcDbLine
 10
13.217626
 20
41.195591
 30
0.0
 11
13.217626
 21
40.85711
 31
0.0
  0
LINE
  5
3B4
100
AcDbEntity
  8
CROP_MARKS
 62
     7
100
AcDbLine
 10
13.217626
 20
40.85711
 30
0.0
 11
12.879317
 21
40.85711
 31
0.0
  0
LINE
  5
3B3
100
AcDbEntity
  8
CROP_MARKS
 62
     7
100
AcDbLine
 10
9.4952
 20
17.733285
 30
0.0
 11
9.4952
 21
18.220766
 31
0.0
  0
LINE
  5
3B2
100
AcDbEntity
  8
CROP_MARKS
 62
     7
100
AcDbLine
 10
9.738768
 20
17.977197
 30
0.0
 11
9.251459
 21
17.977197
 31
0.0
  0
LINE
  5
3B1
100
AcDbEntity
  8
CROP_MARKS
 62
     7
100
AcDbLine
 10
8.682846
 20
17.733285
 30
0.0
 11
8.682846
 21
18.220766
 31
0.0
  0
LINE
  5
3B0
100
AcDbEntity
  8
CROP_MARKS
 62
     7
100
AcDbLine
 10
8.926587
 20
17.977197
 30
0.0
 11
8.439278
 21
17.977197
 31
0.0
  0
LINE
  5
3AF
100
AcDbEntity
  8
CROP_MARKS
 62
     7
100
AcDbLine
 10
7.870665
 20
17.733285
 30
0.0
 11
7.870665
 21
18.220766
 31
0.0
  0
LINE
  5
3AE
100
AcDbEntity
  8
CROP_MARKS
 62
     7
100
AcDbLine
 10
8.114406
 20
17.977197
 30
0.0
 11
7.627097
 21
17.977197
 31
0.0
  0
LINE
  5
3AD
100
AcDbEntity
  8
CROP_MARKS
 62
     7
100
AcDbLine
 10
7.058484
 20
17.733285
 30
0.0
 11
7.058484
 21
18.220766
 31
0.0
  0
LINE
  5
3AC
100
AcDbEntity
  8
CROP_MARKS
 62
     7
100
AcDbLine
 10
7.302052
 20
17.977197
 30
0.0
 11
6.814743
 21
17.977197
 31
0.0
  0
LINE
  5
3AB
100
AcDbEntity
  8
CROP_MARKS
 62
     7
100
AcDbLine
 10
6.246303
 20
17.733285
 30
0.0
 11
6.246303
 21
18.220766
 31
0.0
  0
LINE
  5
3AA
100
AcDbEntity
  8
CROP_MARKS
 62
     7
100
AcDbLine
 10
6.489871
 20
17.977197
 30
0.0
 11
6.002734
 21
17.977197
 31
0.0
  0
LINE
  5
3A9
100
AcDbEntity
  8
CROP_MARKS
 62
     7
100
AcDbLine
 10
5.434121
 20
17.733285
 30
0.0
 11
5.434121
 21
18.220766
 31
0.0
  0
LINE
  5
3A8
100
AcDbEntity
  8
CROP_MARKS
 62
     7
100
AcDbLine
 10
5.677862
 20
17.977197
 30
0.0
 11
5.190553
 21
17.977197
 31
0.0
  0
LINE
  5
3A7
100
AcDbEntity
  8
CROP_MARKS
 62
     7
100
AcDbLine
 10
3.944979
 20
41.222635
 30
0.0
 11
3.944979
 21
41.710116
 31
0.0
  0
LINE
  5
3A6
100
AcDbEntity
  8
CROP_MARKS
 62
     7
100
AcDbLine
 10
4.188719
 20
41.466375
 30
0.0
 11
3.701411
 21
41.466375
 31
0.0
  0
LINE
  5
3A5
100
AcDbEntity
  8
CROP_MARKS
 62
     7
100
AcDbLine
 10
6.652307
 20
41.222635
 30
0.0
 11
6.652307
 21
41.710116
 31
0.0
  0
LINE
  5
3A4
100
AcDbEntity
  8
CROP_MARKS
 62
     7
100
AcDbLine
 10
6.896048
 20
41.466375
 30
0.0
 11
6.408739
 21
41.466375
 31
0.0
  0
LINE
  5
3A3
100
AcDbEntity
  8
CROP_MARKS
 62
     7
100
AcDbLine
 10
13.848078
 20
21.479137
 30
0.0
 11
13.848078
 21
22.833059
 31
0.0
  0
LINE
  5
3A2
100
AcDbEntity
  8
CROP_MARKS
 62
     7
100
AcDbLine
 10
13.848078
 20
36.12596
 30
0.0
 11
13.848078
 21
37.479538
 31
0.0
  0
LINE
  5
3A1
100
AcDbEntity
  8
CROP_MARKS
 62
     7
100
AcDbLine
 10
2.43396
 20
36.12596
 30
0.0
 11
2.43396
 21
37.479538
 31
0.0
  0
LINE
  5
3A0
100
AcDbEntity
  8
CROP_MARKS
 62
     7
100
AcDbLine
 10
2.43396
 20
37.479538
 30
0.0
 11
3.787538
 21
37.479538
 31
0.0
  0
LINE
  5
39F
100
AcDbEntity
  8
CROP_MARKS
 62
     7
100
AcDbLine
 10
12.494328
 20
37.479538
 30
0.0
 11
13.848078
 21
37.479538
 31
0.0
  0
LINE
  5
39E
100
AcDbEntity
  8
CROP_MARKS
 62
     7
100
AcDbLine
 10
12.494328
 20
21.479137
 30
0.0
 11
13.848078
 21
21.479137
 31
0.0
  0
LINE
  5
39D
100
AcDbEntity
  8
CROP_MARKS
 62
     7
100
AcDbLine
 10
9.901204
 20
17.968929
 30
0.0
 11
9.901204
 21
17.630621
 31
0.0
  0
LINE
  5
39C
100
AcDbEntity
  8
CROP_MARKS
 62
     7
100
AcDbLine
 10
9.901204
 20
17.630621
 30
0.0
 11
10.239685
 21
17.630621
 31
0.0
  0
LINE
  5
39B
100
AcDbEntity
  8
CROP_MARKS
 62
     7
100
AcDbLine
 10
11.457871
 20
17.630621
 30
0.0
 11
11.796351
 21
17.630621
 31
0.0
  0
LINE
  5
39A
100
AcDbEntity
  8
CROP_MARKS
 62
     7
100
AcDbLine
 10
11.796351
 20
17.630621
 30
0.0
 11
11.796351
 21
17.968929
 31
0.0
  0
LINE
  5
399
100
AcDbEntity
  8
CROP_MARKS
 62
     7
100
AcDbLine
 10
11.796351
 20
18.104321
 30
0.0
 11
11.796351
 21
18.442974
 31
0.0
  0
LINE
  5
398
100
AcDbEntity
  8
CROP_MARKS
 62
     7
100
AcDbLine
 10
11.796351
 20
18.442974
 30
0.0
 11
11.457871
 21
18.442974
 31
0.0
  0
LINE
  5
397
100
AcDbEntity
  8
CROP_MARKS
 62
     7
100
AcDbLine
 10
10.239685
 20
18.442974
 30
0.0
 11
9.901204
 21
18.442974
 31
0.0
  0
LINE
  5
396
100
AcDbEntity
  8
CROP_MARKS
 62
     7
100
AcDbLine
 10
9.901204
 20
18.442974
 30
0.0
 11
9.901204
 21
18.104321
 31
0.0
  0
LINE
  5
395
100
AcDbEntity
  8
CROP_MARKS
 62
     7
100
AcDbLine
 10
58.804335
 20
27.179392
 30
0.0
 11
60.157913
 21
27.179392
 31
0.0
  0
LINE
  5
394
100
AcDbEntity
  8
CROP_MARKS
 62
     7
100
AcDbLine
 10
59.481296
 20
27.856353
 30
0.0
 11
59.481296
 21
26.502431
 31
0.0
  0
LINE
  5
393
100
AcDbEntity
  8
CROP_MARKS
 62
     7
100
AcDbLine
 10
51.481095
 20
32.886365
 30
0.0
 11
52.835018
 21
32.886365
 31
0.0
  0
LINE
  5
392
100
AcDbEntity
  8
CROP_MARKS
 62
     7
100
AcDbLine
 10
51.481095
 20
32.886365
 30
0.0
 11
51.481095
 21
31.532614
 31
0.0
  0
LINE
  5
391
100
AcDbEntity
  8
CROP_MARKS
 62
     7
100
AcDbLine
 10
40.201681
 20
34.304883
 30
0.0
 11
40.201681
 21
32.951305
 31
0.0
  0
LINE
  5
390
100
AcDbEntity
  8
CROP_MARKS
 62
     7
100
AcDbLine
 10
40.201681
 20
21.407134
 30
0.0
 11
40.201681
 21
20.053556
 31
0.0
  0
LINE
  5
38F
100
AcDbEntity
  8
CROP_MARKS
 62
     7
100
AcDbLine
 10
43.133974
 20
34.304883
 30
0.0
 11
43.133974
 21
32.951305
 31
0.0
  0
LINE
  5
38E
100
AcDbEntity
  8
CROP_MARKS
 62
     7
100
AcDbLine
 10
43.133974
 20
21.407134
 30
0.0
 11
43.133974
 21
20.053556
 31
0.0
  0
LINE
  5
38D
100
AcDbEntity
  8
CROP_MARKS
 62
     7
100
AcDbLine
 10
40.201681
 20
34.304883
 30
0.0
 11
41.555431
 21
34.304883
 31
0.0
  0
LINE
  5
38C
100
AcDbEntity
  8
CROP_MARKS
 62
     7
100
AcDbLine
 10
41.780051
 20
34.304883
 30
0.0
 11
43.133974
 21
34.304883
 31
0.0
  0
LINE
  5
38B
100
AcDbEntity
  8
CROP_MARKS
 62
     7
100
AcDbLine
 10
40.201681
 20
20.053556
 30
0.0
 11
41.555431
 21
20.053556
 31
0.0
  0
LINE
  5
38A
100
AcDbEntity
  8
CROP_MARKS
 62
     7
100
AcDbLine
 10
41.780051
 20
20.053556
 30
0.0
 11
43.133974
 21
20.053556
 31
0.0
  0
LINE
  5
389
100
AcDbEntity
  8
CROP_MARKS
 62
     7
100
AcDbLine
 10
79.875228
 20
21.48017
 30
0.0
 11
79.875228
 21
22.834093
 31
0.0
  0
LINE
  5
388
100
AcDbEntity
  8
CROP_MARKS
 62
     7
100
AcDbLine
 10
79.875228
 20
31.524519
 30
0.0
 11
79.875228
 21
32.878269
 31
0.0
  0
LINE
  5
387
100
AcDbEntity
  8
CROP_MARKS
 62
     7
100
AcDbLine
 10
76.943452
 20
21.48017
 30
0.0
 11
76.943452
 21
22.834093
 31
0.0
  0
LINE
  5
386
100
AcDbEntity
  8
CROP_MARKS
 62
     7
100
AcDbLine
 10
76.943452
 20
31.524519
 30
0.0
 11
76.943452
 21
32.878269
 31
0.0
  0
LINE
  5
385
100
AcDbEntity
  8
CROP_MARKS
 62
     7
100
AcDbLine
 10
76.943452
 20
32.878269
 30
0.0
 11
78.29703
 21
32.878269
 31
0.0
  0
LINE
  5
384
100
AcDbEntity
  8
CROP_MARKS
 62
     7
100
AcDbLine
 10
78.521994
 20
32.878269
 30
0.0
 11
79.875228
 21
32.878269
 31
0.0
  0
LINE
  5
383
100
AcDbEntity
  8
CROP_MARKS
 62
     7
100
AcDbLine
 10
76.943452
 20
21.48017
 30
0.0
 11
78.29703
 21
21.48017
 31
0.0
  0
LINE
  5
382
100
AcDbEntity
  8
CROP_MARKS
 62
     7
100
AcDbLine
 10
78.521994
 20
21.48017
 30
0.0
 11
79.875228
 21
21.48017
 31
0.0
  0
LINE
  5
381
100
AcDbEntity
  8
CROP_MARKS
 62
     7
100
AcDbLine
 10
40.383065
 20
21.956972
 30
0.0
 11
40.870201
 21
21.956972
 31
0.0
  0
LINE
  5
380
100
AcDbEntity
  8
CROP_MARKS
 62
     7
100
AcDbLine
 10
40.626633
 20
21.713059
 30
0.0
 11
40.626633
 21
22.20054
 31
0.0
  0
LINE
  5
37F
100
AcDbEntity
  8
CROP_MARKS
 62
     7
100
AcDbLine
 10
77.054384
 20
21.956972
 30
0.0
 11
77.54152
 21
21.956972
 31
0.0
  0
LINE
  5
37E
100
AcDbEntity
  8
CROP_MARKS
 62
     7
100
AcDbLine
 10
77.297952
 20
21.713059
 30
0.0
 11
77.297952
 21
22.20054
 31
0.0
  0
LINE
  5
37D
100
AcDbEntity
  8
CROP_MARKS
 62
     7
100
AcDbLine
 10
40.383065
 20
32.401812
 30
0.0
 11
40.870201
 21
32.401812
 31
0.0
  0
LINE
  5
37C
100
AcDbEntity
  8
CROP_MARKS
 62
     7
100
AcDbLine
 10
40.626633
 20
32.158072
 30
0.0
 11
40.626633
 21
32.64538
 31
0.0
  0
LINE
  5
37B
100
AcDbEntity
  8
CROP_MARKS
 62
     7
100
AcDbLine
 10
42.535216
 20
32.401812
 30
0.0
 11
43.022697
 21
32.401812
 31
0.0
  0
LINE
  5
37A
100
AcDbEntity
  8
CROP_MARKS
 62
     7
100
AcDbLine
 10
42.779129
 20
32.158072
 30
0.0
 11
42.779129
 21
32.64538
 31
0.0
  0
LINE
  5
379
100
AcDbEntity
  8
CROP_MARKS
 62
     7
100
AcDbLine
 10
42.535216
 20
21.956972
 30
0.0
 11
43.022697
 21
21.956972
 31
0.0
  0
LINE
  5
378
100
AcDbEntity
  8
CROP_MARKS
 62
     7
100
AcDbLine
 10
42.779129
 20
21.713059
 30
0.0
 11
42.779129
 21
22.20054
 31
0.0
  0
LINE
  5
377
100
AcDbEntity
  8
CROP_MARKS
 62
     7
100
AcDbLine
 10
77.054384
 20
32.401812
 30
0.0
 11
77.54152
 21
32.401812
 31
0.0
  0
LINE
  5
376
100
AcDbEntity
  8
CROP_MARKS
 62
     7
100
AcDbLine
 10
77.297952
 20
32.158072
 30
0.0
 11
77.297952
 21
32.64538
 31
0.0
  0
LINE
  5
375
100
AcDbEntity
  8
CROP_MARKS
 62
     7
100
AcDbLine
 10
79.206535
 20
32.401812
 30
0.0
 11
79.694016
 21
32.401812
 31
0.0
  0
LINE
  5
374
100
AcDbEntity
  8
CROP_MARKS
 62
     7
100
AcDbLine
 10
79.450448
 20
32.158072
 30
0.0
 11
79.450448
 21
32.64538
 31
0.0
  0
LINE
  5
373
100
AcDbEntity
  8
CROP_MARKS
 62
     7
100
AcDbLine
 10
79.206535
 20
21.956972
 30
0.0
 11
79.694016
 21
21.956972
 31
0.0
  0
LINE
  5
372
100
AcDbEntity
  8
CROP_MARKS
 62
     7
100
AcDbLine
 10
79.450448
 20
21.713059
 30
0.0
 11
79.450448
 21
22.20054
 31
0.0
  0
LINE
  5
371
100
AcDbEntity
  8
CROP_MARKS
 62
     7
100
AcDbLine
 10
78.259134
 20
22.103044
 30
0.0
 11
77.920825
 21
22.103044
 31
0.0
  0
LINE
  5
370
100
AcDbEntity
  8
CROP_MARKS
 62
     7
100
AcDbLine
 10
77.920825
 20
22.103044
 30
0.0
 11
77.920825
 21
22.441697
 31
0.0
  0
LINE
  5
36F
100
AcDbEntity
  8
CROP_MARKS
 62
     7
100
AcDbLine
 10
78.259134
 20
23.456622
 30
0.0
 11
77.920825
 21
23.456622
 31
0.0
  0
LINE
  5
36E
100
AcDbEntity
  8
CROP_MARKS
 62
     7
100
AcDbLine
 10
77.920825
 20
23.456622
 30
0.0
 11
77.920825
 21
23.118313
 31
0.0
  0
LINE
  5
36D
100
AcDbEntity
  8
CROP_MARKS
 62
     7
100
AcDbLine
 10
78.733179
 20
23.456622
 30
0.0
 11
79.071487
 21
23.456622
 31
0.0
  0
LINE
  5
36C
100
AcDbEntity
  8
CROP_MARKS
 62
     7
100
AcDbLine
 10
79.071487
 20
23.456622
 30
0.0
 11
79.071487
 21
23.118313
 31
0.0
  0
LINE
  5
36B
100
AcDbEntity
  8
CROP_MARKS
 62
     7
100
AcDbLine
 10
79.071487
 20
22.441697
 30
0.0
 11
79.071487
 21
22.103044
 31
0.0
  0
LINE
  5
36A
100
AcDbEntity
  8
CROP_MARKS
 62
     7
100
AcDbLine
 10
79.071487
 20
22.103044
 30
0.0
 11
78.733179
 21
22.103044
 31
0.0
  0
LINE
  5
369
100
AcDbEntity
  8
CROP_MARKS
 62
     7
100
AcDbLine
 10
51.481095
 20
21.471902
 30
0.0
 11
52.835018
 21
21.471902
 31
0.0
  0
LINE
  5
368
100
AcDbEntity
  8
CROP_MARKS
 62
     7
100
AcDbLine
 10
66.127574
 20
21.471902
 30
0.0
 11
67.481497
 21
21.471902
 31
0.0
  0
LINE
  5
367
100
AcDbEntity
  8
CROP_MARKS
 62
     7
100
AcDbLine
 10
66.127574
 20
32.886365
 30
0.0
 11
67.481497
 21
32.886365
 31
0.0
  0
LINE
  5
366
100
AcDbEntity
  8
CROP_MARKS
 62
     7
100
AcDbLine
 10
67.481497
 20
32.886365
 30
0.0
 11
67.481497
 21
31.532614
 31
0.0
  0
LINE
  5
365
100
AcDbEntity
  8
CROP_MARKS
 62
     7
100
AcDbLine
 10
67.481497
 20
22.825825
 30
0.0
 11
67.481497
 21
21.471902
 31
0.0
  0
LINE
  5
364
100
AcDbEntity
  8
CROP_MARKS
 62
     7
100
AcDbLine
 10
51.481095
 20
22.825825
 30
0.0
 11
51.481095
 21
21.471902
 31
0.0
  0
LINE
  5
363
100
AcDbEntity
  8
CROP_MARKS
 62
     7
100
AcDbLine
 10
78.19161
 20
31.632867
 30
0.0
 11
78.19161
 21
31.971175
 31
0.0
  0
LINE
  5
362
100
AcDbEntity
  8
CROP_MARKS
 62
     7
100
AcDbLine
 10
78.19161
 20
31.971175
 30
0.0
 11
78.529918
 21
31.971175
 31
0.0
  0
LINE
  5
361
100
AcDbEntity
  8
CROP_MARKS
 62
     7
100
AcDbLine
 10
78.733179
 20
31.971175
 30
0.0
 11
79.071487
 21
31.971175
 31
0.0
  0
LINE
  5
360
100
AcDbEntity
  8
CROP_MARKS
 62
     7
100
AcDbLine
 10
79.071487
 20
31.971175
 30
0.0
 11
79.071487
 21
31.632867
 31
0.0
  0
LINE
  5
35F
100
AcDbEntity
  8
CROP_MARKS
 62
     7
100
AcDbLine
 10
79.071487
 20
30.982949
 30
0.0
 11
79.071487
 21
30.644641
 31
0.0
  0
LINE
  5
35E
100
AcDbEntity
  8
CROP_MARKS
 62
     7
100
AcDbLine
 10
79.071487
 20
30.644641
 30
0.0
 11
78.733179
 21
30.644641
 31
0.0
  0
LINE
  5
35D
100
AcDbEntity
  8
CROP_MARKS
 62
     7
100
AcDbLine
 10
78.529918
 20
30.644641
 30
0.0
 11
78.19161
 21
30.644641
 31
0.0
  0
LINE
  5
35C
100
AcDbEntity
  8
CROP_MARKS
 62
     7
100
AcDbLine
 10
78.19161
 20
30.644641
 30
0.0
 11
78.19161
 21
30.982949
 31
0.0
  0
LINE
  5
35B
100
AcDbEntity
  8
CROP_MARKS
 62
     7
100
AcDbLine
 10
78.19161
 20
30.048984
 30
0.0
 11
78.19161
 21
30.387465
 31
0.0
  0
LINE
  5
35A
100
AcDbEntity
  8
CROP_MARKS
 62
     7
100
AcDbLine
 10
78.19161
 20
30.387465
 30
0.0
 11
78.529918
 21
30.387465
 31
0.0
  0
LINE
  5
359
100
AcDbEntity
  8
CROP_MARKS
 62
     7
100
AcDbLine
 10
78.733179
 20
30.387465
 30
0.0
 11
79.071487
 21
30.387465
 31
0.0
  0
LINE
  5
358
100
AcDbEntity
  8
CROP_MARKS
 62
     7
100
AcDbLine
 10
79.071487
 20
30.387465
 30
0.0
 11
79.071487
 21
30.048984
 31
0.0
  0
LINE
  5
357
100
AcDbEntity
  8
CROP_MARKS
 62
     7
100
AcDbLine
 10
79.071487
 20
27.558352
 30
0.0
 11
79.071487
 21
27.219699
 31
0.0
  0
LINE
  5
356
100
AcDbEntity
  8
CROP_MARKS
 62
     7
100
AcDbLine
 10
79.071487
 20
27.219699
 30
0.0
 11
78.733179
 21
27.219699
 31
0.0
  0
LINE
  5
355
100
AcDbEntity
  8
CROP_MARKS
 62
     7
100
AcDbLine
 10
78.529918
 20
27.219699
 30
0.0
 11
78.19161
 21
27.219699
 31
0.0
  0
LINE
  5
354
100
AcDbEntity
  8
CROP_MARKS
 62
     7
100
AcDbLine
 10
78.19161
 20
27.219699
 30
0.0
 11
78.19161
 21
27.558352
 31
0.0
  0
LINE
  5
353
100
AcDbEntity
  8
CROP_MARKS
 62
     7
100
AcDbLine
 10
78.19161
 20
26.800087
 30
0.0
 11
78.19161
 21
27.13874
 31
0.0
  0
LINE
  5
352
100
AcDbEntity
  8
CROP_MARKS
 62
     7
100
AcDbLine
 10
78.19161
 20
27.13874
 30
0.0
 11
78.529918
 21
27.13874
 31
0.0
  0
LINE
  5
351
100
AcDbEntity
  8
CROP_MARKS
 62
     7
100
AcDbLine
 10
78.733179
 20
27.13874
 30
0.0
 11
79.071487
 21
27.13874
 31
0.0
  0
LINE
  5
350
100
AcDbEntity
  8
CROP_MARKS
 62
     7
100
AcDbLine
 10
79.071487
 20
27.13874
 30
0.0
 11
79.071487
 21
26.800087
 31
0.0
  0
LINE
  5
34F
100
AcDbEntity
  8
CROP_MARKS
 62
     7
100
AcDbLine
 10
79.071487
 20
24.309627
 30
0.0
 11
79.071487
 21
23.971319
 31
0.0
  0
LINE
  5
34E
100
AcDbEntity
  8
CROP_MARKS
 62
     7
100
AcDbLine
 10
79.071487
 20
23.971319
 30
0.0
 11
78.733179
 21
23.971319
 31
0.0
  0
LINE
  5
34D
100
AcDbEntity
  8
CROP_MARKS
 62
     7
100
AcDbLine
 10
78.529918
 20
23.971319
 30
0.0
 11
78.19161
 21
23.971319
 31
0.0
  0
LINE
  5
34C
100
AcDbEntity
  8
CROP_MARKS
 62
     7
100
AcDbLine
 10
78.19161
 20
23.971319
 30
0.0
 11
78.19161
 21
24.309627
 31
0.0
  0
LINE
  5
34B
100
AcDbEntity
  8
CROP_MARKS
 62
     7
100
AcDbLine
 10
47.537839
 20
28.521601
 30
0.0
 11
48.891417
 21
28.521601
 31
0.0
  0
LINE
  5
34A
100
AcDbEntity
  8
CROP_MARKS
 62
     7
100
AcDbLine
 10
48.2148
 20
29.198218
 30
0.0
 11
48.2148
 21
27.844984
 31
0.0
  0
LINE
  5
349
100
AcDbEntity
  8
CROP_MARKS
 62
     7
100
AcDbLine
 10
40.214427
 20
34.228574
 30
0.0
 11
41.568178
 21
34.228574
 31
0.0
  0
LINE
  5
348
100
AcDbEntity
  8
CROP_MARKS
 62
     7
100
AcDbLine
 10
40.214427
 20
34.228574
 30
0.0
 11
40.214427
 21
32.874996
 31
0.0
  0
LINE
  5
347
100
AcDbEntity
  8
CROP_MARKS
 62
     7
100
AcDbLine
 10
28.935012
 20
35.647437
 30
0.0
 11
28.935012
 21
34.293686
 31
0.0
  0
LINE
  5
346
100
AcDbEntity
  8
CROP_MARKS
 62
     7
100
AcDbLine
 10
28.935012
 20
22.749688
 30
0.0
 11
28.935012
 21
21.395766
 31
0.0
  0
LINE
  5
345
100
AcDbEntity
  8
CROP_MARKS
 62
     7
100
AcDbLine
 10
31.867133
 20
35.647437
 30
0.0
 11
31.867133
 21
34.293686
 31
0.0
  0
LINE
  5
344
100
AcDbEntity
  8
CROP_MARKS
 62
     7
100
AcDbLine
 10
31.867133
 20
22.749688
 30
0.0
 11
31.867133
 21
21.395766
 31
0.0
  0
LINE
  5
343
100
AcDbEntity
  8
CROP_MARKS
 62
     7
100
AcDbLine
 10
28.935012
 20
35.647437
 30
0.0
 11
30.28859
 21
35.647437
 31
0.0
  0
LINE
  5
342
100
AcDbEntity
  8
CROP_MARKS
 62
     7
100
AcDbLine
 10
30.513211
 20
35.647437
 30
0.0
 11
31.867133
 21
35.647437
 31
0.0
  0
LINE
  5
341
100
AcDbEntity
  8
CROP_MARKS
 62
     7
100
AcDbLine
 10
28.935012
 20
21.395766
 30
0.0
 11
30.28859
 21
21.395766
 31
0.0
  0
LINE
  5
340
100
AcDbEntity
  8
CROP_MARKS
 62
     7
100
AcDbLine
 10
30.513211
 20
21.395766
 30
0.0
 11
31.867133
 21
21.395766
 31
0.0
  0
LINE
  5
33F
100
AcDbEntity
  8
CROP_MARKS
 62
     7
100
AcDbLine
 10
68.608732
 20
22.822724
 30
0.0
 11
68.608732
 21
24.176302
 31
0.0
  0
LINE
  5
33E
100
AcDbEntity
  8
CROP_MARKS
 62
     7
100
AcDbLine
 10
68.608732
 20
32.8669
 30
0.0
 11
68.608732
 21
34.22065
 31
0.0
  0
LINE
  5
33D
100
AcDbEntity
  8
CROP_MARKS
 62
     7
100
AcDbLine
 10
65.676611
 20
22.822724
 30
0.0
 11
65.676611
 21
24.176302
 31
0.0
  0
LINE
  5
33C
100
AcDbEntity
  8
CROP_MARKS
 62
     7
100
AcDbLine
 10
65.676611
 20
32.8669
 30
0.0
 11
65.676611
 21
34.22065
 31
0.0
  0
LINE
  5
33B
100
AcDbEntity
  8
CROP_MARKS
 62
     7
100
AcDbLine
 10
65.676611
 20
34.22065
 30
0.0
 11
67.030534
 21
34.22065
 31
0.0
  0
LINE
  5
33A
100
AcDbEntity
  8
CROP_MARKS
 62
     7
100
AcDbLine
 10
67.255154
 20
34.22065
 30
0.0
 11
68.608732
 21
34.22065
 31
0.0
  0
LINE
  5
339
100
AcDbEntity
  8
CROP_MARKS
 62
     7
100
AcDbLine
 10
65.676611
 20
22.822724
 30
0.0
 11
67.030534
 21
22.822724
 31
0.0
  0
LINE
  5
338
100
AcDbEntity
  8
CROP_MARKS
 62
     7
100
AcDbLine
 10
67.255154
 20
22.822724
 30
0.0
 11
68.608732
 21
22.822724
 31
0.0
  0
LINE
  5
337
100
AcDbEntity
  8
CROP_MARKS
 62
     7
100
AcDbLine
 10
29.116397
 20
23.299181
 30
0.0
 11
29.603706
 21
23.299181
 31
0.0
  0
LINE
  5
336
100
AcDbEntity
  8
CROP_MARKS
 62
     7
100
AcDbLine
 10
29.359965
 20
23.055613
 30
0.0
 11
29.359965
 21
23.543094
 31
0.0
  0
LINE
  5
335
100
AcDbEntity
  8
CROP_MARKS
 62
     7
100
AcDbLine
 10
65.787543
 20
23.299181
 30
0.0
 11
66.275024
 21
23.299181
 31
0.0
  0
LINE
  5
334
100
AcDbEntity
  8
CROP_MARKS
 62
     7
100
AcDbLine
 10
66.031456
 20
23.055613
 30
0.0
 11
66.031456
 21
23.543094
 31
0.0
  0
LINE
  5
333
100
AcDbEntity
  8
CROP_MARKS
 62
     7
100
AcDbLine
 10
29.116397
 20
33.744021
 30
0.0
 11
29.603706
 21
33.744021
 31
0.0
  0
LINE
  5
332
100
AcDbEntity
  8
CROP_MARKS
 62
     7
100
AcDbLine
 10
29.359965
 20
33.500453
 30
0.0
 11
29.359965
 21
33.987762
 31
0.0
  0
LINE
  5
331
100
AcDbEntity
  8
CROP_MARKS
 62
     7
100
AcDbLine
 10
31.26872
 20
33.744021
 30
0.0
 11
31.756029
 21
33.744021
 31
0.0
  0
LINE
  5
330
100
AcDbEntity
  8
CROP_MARKS
 62
     7
100
AcDbLine
 10
31.512288
 20
33.500453
 30
0.0
 11
31.512288
 21
33.987762
 31
0.0
  0
LINE
  5
32F
100
AcDbEntity
  8
CROP_MARKS
 62
     7
100
AcDbLine
 10
31.26872
 20
23.299181
 30
0.0
 11
31.756029
 21
23.299181
 31
0.0
  0
LINE
  5
32E
100
AcDbEntity
  8
CROP_MARKS
 62
     7
100
AcDbLine
 10
31.512288
 20
23.055613
 30
0.0
 11
31.512288
 21
23.543094
 31
0.0
  0
LINE
  5
32D
100
AcDbEntity
  8
CROP_MARKS
 62
     7
100
AcDbLine
 10
65.787543
 20
33.744021
 30
0.0
 11
66.275024
 21
33.744021
 31
0.0
  0
LINE
  5
32C
100
AcDbEntity
  8
CROP_MARKS
 62
     7
100
AcDbLine
 10
66.031456
 20
33.500453
 30
0.0
 11
66.031456
 21
33.987762
 31
0.0
  0
LINE
  5
32B
100
AcDbEntity
  8
CROP_MARKS
 62
     7
100
AcDbLine
 10
67.940039
 20
33.744021
 30
0.0
 11
68.427176
 21
33.744021
 31
0.0
  0
LINE
  5
32A
100
AcDbEntity
  8
CROP_MARKS
 62
     7
100
AcDbLine
 10
68.183607
 20
33.500453
 30
0.0
 11
68.183607
 21
33.987762
 31
0.0
  0
LINE
  5
329
100
AcDbEntity
  8
CROP_MARKS
 62
     7
100
AcDbLine
 10
67.940039
 20
23.299181
 30
0.0
 11
68.427176
 21
23.299181
 31
0.0
  0
LINE
  5
328
100
AcDbEntity
  8
CROP_MARKS
 62
     7
100
AcDbLine
 10
68.183607
 20
23.055613
 30
0.0
 11
68.183607
 21
23.543094
 31
0.0
  0
LINE
  5
327
100
AcDbEntity
  8
CROP_MARKS
 62
     7
100
AcDbLine
 10
66.992293
 20
23.445597
 30
0.0
 11
66.653985
 21
23.445597
 31
0.0
  0
LINE
  5
326
100
AcDbEntity
  8
CROP_MARKS
 62
     7
100
AcDbLine
 10
66.653985
 20
23.445597
 30
0.0
 11
66.653985
 21
23.783561
 31
0.0
  0
LINE
  5
325
100
AcDbEntity
  8
CROP_MARKS
 62
     7
100
AcDbLine
 10
66.992293
 20
24.798831
 30
0.0
 11
66.653985
 21
24.798831
 31
0.0
  0
LINE
  5
324
100
AcDbEntity
  8
CROP_MARKS
 62
     7
100
AcDbLine
 10
66.653985
 20
24.798831
 30
0.0
 11
66.653985
 21
24.460522
 31
0.0
  0
LINE
  5
323
100
AcDbEntity
  8
CROP_MARKS
 62
     7
100
AcDbLine
 10
67.466338
 20
24.798831
 30
0.0
 11
67.804647
 21
24.798831
 31
0.0
  0
LINE
  5
322
100
AcDbEntity
  8
CROP_MARKS
 62
     7
100
AcDbLine
 10
67.804647
 20
24.798831
 30
0.0
 11
67.804647
 21
24.460522
 31
0.0
  0
LINE
  5
321
100
AcDbEntity
  8
CROP_MARKS
 62
     7
100
AcDbLine
 10
67.804647
 20
23.783561
 30
0.0
 11
67.804647
 21
23.445597
 31
0.0
  0
LINE
  5
320
100
AcDbEntity
  8
CROP_MARKS
 62
     7
100
AcDbLine
 10
67.804647
 20
23.445597
 30
0.0
 11
67.466338
 21
23.445597
 31
0.0
  0
LINE
  5
31F
100
AcDbEntity
  8
CROP_MARKS
 62
     7
100
AcDbLine
 10
40.214427
 20
22.814456
 30
0.0
 11
41.568178
 21
22.814456
 31
0.0
  0
LINE
  5
31E
100
AcDbEntity
  8
CROP_MARKS
 62
     7
100
AcDbLine
 10
54.861079
 20
22.814456
 30
0.0
 11
56.214657
 21
22.814456
 31
0.0
  0
LINE
  5
31D
100
AcDbEntity
  8
CROP_MARKS
 62
     7
100
AcDbLine
 10
54.861079
 20
34.228574
 30
0.0
 11
56.214657
 21
34.228574
 31
0.0
  0
LINE
  5
31C
100
AcDbEntity
  8
CROP_MARKS
 62
     7
100
AcDbLine
 10
56.214657
 20
34.228574
 30
0.0
 11
56.214657
 21
32.874996
 31
0.0
  0
LINE
  5
31B
100
AcDbEntity
  8
CROP_MARKS
 62
     7
100
AcDbLine
 10
56.214657
 20
24.168378
 30
0.0
 11
56.214657
 21
22.814456
 31
0.0
  0
LINE
  5
31A
100
AcDbEntity
  8
CROP_MARKS
 62
     7
100
AcDbLine
 10
40.214427
 20
24.168378
 30
0.0
 11
40.214427
 21
22.814456
 31
0.0
  0
LINE
  5
319
100
AcDbEntity
  8
CROP_MARKS
 62
     7
100
AcDbLine
 10
66.924769
 20
31.391366
 30
0.0
 11
66.924769
 21
31.729846
 31
0.0
  0
LINE
  5
318
100
AcDbEntity
  8
CROP_MARKS
 62
     7
100
AcDbLine
 10
66.924769
 20
31.729846
 30
0.0
 11
67.263078
 21
31.729846
 31
0.0
  0
LINE
  5
317
100
AcDbEntity
  8
CROP_MARKS
 62
     7
100
AcDbLine
 10
67.466338
 20
31.729846
 30
0.0
 11
67.804647
 21
31.729846
 31
0.0
  0
LINE
  5
316
100
AcDbEntity
  8
CROP_MARKS
 62
     7
100
AcDbLine
 10
67.804647
 20
31.729846
 30
0.0
 11
67.804647
 21
31.391366
 31
0.0
  0
LINE
  5
315
100
AcDbEntity
  8
CROP_MARKS
 62
     7
100
AcDbLine
 10
67.804647
 20
28.900562
 30
0.0
 11
67.804647
 21
28.562253
 31
0.0
  0
LINE
  5
314
100
AcDbEntity
  8
CROP_MARKS
 62
     7
100
AcDbLine
 10
67.804647
 20
28.562253
 30
0.0
 11
67.466338
 21
28.562253
 31
0.0
  0
LINE
  5
313
100
AcDbEntity
  8
CROP_MARKS
 62
     7
100
AcDbLine
 10
67.263078
 20
28.562253
 30
0.0
 11
66.924769
 21
28.562253
 31
0.0
  0
LINE
  5
312
100
AcDbEntity
  8
CROP_MARKS
 62
     7
100
AcDbLine
 10
66.924769
 20
28.562253
 30
0.0
 11
66.924769
 21
28.900562
 31
0.0
  0
LINE
  5
311
100
AcDbEntity
  8
CROP_MARKS
 62
     7
100
AcDbLine
 10
66.924769
 20
28.142641
 30
0.0
 11
66.924769
 21
28.480949
 31
0.0
  0
LINE
  5
310
100
AcDbEntity
  8
CROP_MARKS
 62
     7
100
AcDbLine
 10
66.924769
 20
28.480949
 30
0.0
 11
67.263078
 21
28.480949
 31
0.0
  0
LINE
  5
30F
100
AcDbEntity
  8
CROP_MARKS
 62
     7
100
AcDbLine
 10
67.466338
 20
28.480949
 30
0.0
 11
67.804647
 21
28.480949
 31
0.0
  0
LINE
  5
30E
100
AcDbEntity
  8
CROP_MARKS
 62
     7
100
AcDbLine
 10
67.804647
 20
28.480949
 30
0.0
 11
67.804647
 21
28.142641
 31
0.0
  0
LINE
  5
30D
100
AcDbEntity
  8
CROP_MARKS
 62
     7
100
AcDbLine
 10
67.804647
 20
25.652181
 30
0.0
 11
67.804647
 21
25.313528
 31
0.0
  0
LINE
  5
30C
100
AcDbEntity
  8
CROP_MARKS
 62
     7
100
AcDbLine
 10
67.804647
 20
25.313528
 30
0.0
 11
67.466338
 21
25.313528
 31
0.0
  0
LINE
  5
30B
100
AcDbEntity
  8
CROP_MARKS
 62
     7
100
AcDbLine
 10
67.263078
 20
25.313528
 30
0.0
 11
66.924769
 21
25.313528
 31
0.0
  0
LINE
  5
30A
100
AcDbEntity
  8
CROP_MARKS
 62
     7
100
AcDbLine
 10
66.924769
 20
25.313528
 30
0.0
 11
66.924769
 21
25.652181
 31
0.0
  0
LINE
  5
309
100
AcDbEntity
  8
CROP_MARKS
 62
     7
100
AcDbLine
 10
42.008116
 20
31.228068
 30
0.0
 11
42.008116
 21
29.874146
 31
0.0
  0
LINE
  5
308
100
AcDbEntity
  8
CROP_MARKS
 62
     7
100
AcDbLine
 10
42.008116
 20
18.33032
 30
0.0
 11
42.008116
 21
16.976397
 31
0.0
  0
LINE
  5
307
100
AcDbEntity
  8
CROP_MARKS
 62
     7
100
AcDbLine
 10
44.939893
 20
31.228068
 30
0.0
 11
44.939893
 21
29.874146
 31
0.0
  0
LINE
  5
306
100
AcDbEntity
  8
CROP_MARKS
 62
     7
100
AcDbLine
 10
44.939893
 20
18.33032
 30
0.0
 11
44.939893
 21
16.976397
 31
0.0
  0
LINE
  5
305
100
AcDbEntity
  8
CROP_MARKS
 62
     7
100
AcDbLine
 10
42.008116
 20
31.228068
 30
0.0
 11
43.361694
 21
31.228068
 31
0.0
  0
LINE
  5
304
100
AcDbEntity
  8
CROP_MARKS
 62
     7
100
AcDbLine
 10
43.586659
 20
31.228068
 30
0.0
 11
44.939893
 21
31.228068
 31
0.0
  0
LINE
  5
303
100
AcDbEntity
  8
CROP_MARKS
 62
     7
100
AcDbLine
 10
42.008116
 20
16.976397
 30
0.0
 11
43.361694
 21
16.976397
 31
0.0
  0
LINE
  5
302
100
AcDbEntity
  8
CROP_MARKS
 62
     7
100
AcDbLine
 10
43.586659
 20
16.976397
 30
0.0
 11
44.939893
 21
16.976397
 31
0.0
  0
LINE
  5
301
100
AcDbEntity
  8
CROP_MARKS
 62
     7
100
AcDbLine
 10
42.189328
 20
18.879812
 30
0.0
 11
42.676809
 21
18.879812
 31
0.0
  0
LINE
  5
300
100
AcDbEntity
  8
CROP_MARKS
 62
     7
100
AcDbLine
 10
42.432897
 20
18.636244
 30
0.0
 11
42.432897
 21
19.123725
 31
0.0
  0
LINE
  5
2FF
100
AcDbEntity
  8
CROP_MARKS
 62
     7
100
AcDbLine
 10
42.189328
 20
29.324653
 30
0.0
 11
42.676809
 21
29.324653
 31
0.0
  0
LINE
  5
2FE
100
AcDbEntity
  8
CROP_MARKS
 62
     7
100
AcDbLine
 10
42.432897
 20
29.081085
 30
0.0
 11
42.432897
 21
29.568221
 31
0.0
  0
LINE
  5
2FD
100
AcDbEntity
  8
CROP_MARKS
 62
     7
100
AcDbLine
 10
44.341824
 20
29.324653
 30
0.0
 11
44.828961
 21
29.324653
 31
0.0
  0
LINE
  5
2FC
100
AcDbEntity
  8
CROP_MARKS
 62
     7
100
AcDbLine
 10
44.585048
 20
29.081085
 30
0.0
 11
44.585048
 21
29.568221
 31
0.0
  0
LINE
  5
2FB
100
AcDbEntity
  8
CROP_MARKS
 62
     7
100
AcDbLine
 10
44.341824
 20
18.879812
 30
0.0
 11
44.828961
 21
18.879812
 31
0.0
  0
LINE
  5
2FA
100
AcDbEntity
  8
CROP_MARKS
 62
     7
100
AcDbLine
 10
44.585048
 20
18.636244
 30
0.0
 11
44.585048
 21
19.123725
 31
0.0
  0
LINE
  5
2F9
100
AcDbEntity
  8
CROP_MARKS
 62
     7
100
AcDbLine
 10
43.231814
 20
30.515967
 30
0.0
 11
43.718951
 21
30.515967
 31
0.0
  0
LINE
  5
2F8
100
AcDbEntity
  8
CROP_MARKS
 62
     7
100
AcDbLine
 10
43.475382
 20
30.272226
 30
0.0
 11
43.475382
 21
30.759535
 31
0.0
  0
LINE
  5
2F7
100
AcDbEntity
  8
CROP_MARKS
 62
     7
100
AcDbLine
 10
43.231814
 20
17.688843
 30
0.0
 11
43.718951
 21
17.688843
 31
0.0
  0
LINE
  5
2F6
100
AcDbEntity
  8
CROP_MARKS
 62
     7
100
AcDbLine
 10
43.475382
 20
17.44493
 30
0.0
 11
43.475382
 21
17.932411
 31
0.0
  0
LINE
  5
2F5
100
AcDbEntity
  8
CROP_MARKS
 62
     7
100
AcDbLine
 10
42.812202
 20
25.562953
 30
0.0
 11
42.812202
 21
25.2243
 31
0.0
  0
LINE
  5
2F4
100
AcDbEntity
  8
CROP_MARKS
 62
     7
100
AcDbLine
 10
42.812202
 20
25.2243
 30
0.0
 11
43.15051
 21
25.2243
 31
0.0
  0
LINE
  5
2F3
100
AcDbEntity
  8
CROP_MARKS
 62
     7
100
AcDbLine
 10
43.979055
 20
25.2243
 30
0.0
 11
44.317364
 21
25.2243
 31
0.0
  0
LINE
  5
2F2
100
AcDbEntity
  8
CROP_MARKS
 62
     7
100
AcDbLine
 10
44.317364
 20
25.2243
 30
0.0
 11
44.317364
 21
25.562953
 31
0.0
  0
LINE
  5
2F1
100
AcDbEntity
  8
CROP_MARKS
 62
     7
100
AcDbLine
 10
44.317364
 20
26.705347
 30
0.0
 11
44.317364
 21
27.044
 31
0.0
  0
LINE
  5
2F0
100
AcDbEntity
  8
CROP_MARKS
 62
     7
100
AcDbLine
 10
44.317364
 20
27.044
 30
0.0
 11
43.979055
 21
27.044
 31
0.0
  0
LINE
  5
2EF
100
AcDbEntity
  8
CROP_MARKS
 62
     7
100
AcDbLine
 10
43.15051
 20
27.044
 30
0.0
 11
42.812202
 21
27.044
 31
0.0
  0
LINE
  5
2EE
100
AcDbEntity
  8
CROP_MARKS
 62
     7
100
AcDbLine
 10
42.812202
 20
27.044
 30
0.0
 11
42.812202
 21
26.705347
 31
0.0
  0
LINE
  5
2ED
100
AcDbEntity
  8
CROP_MARKS
 62
     7
100
AcDbLine
 10
43.107102
 20
28.949826
 30
0.0
 11
42.768793
 21
28.949826
 31
0.0
  0
LINE
  5
2EC
100
AcDbEntity
  8
CROP_MARKS
 62
     7
100
AcDbLine
 10
42.768793
 20
28.949826
 30
0.0
 11
42.768793
 21
28.611518
 31
0.0
  0
LINE
  5
2EB
100
AcDbEntity
  8
CROP_MARKS
 62
     7
100
AcDbLine
 10
42.768793
 20
27.663772
 30
0.0
 11
42.768793
 21
27.325119
 31
0.0
  0
LINE
  5
2EA
100
AcDbEntity
  8
CROP_MARKS
 62
     7
100
AcDbLine
 10
42.768793
 20
27.325119
 30
0.0
 11
43.107102
 21
27.325119
 31
0.0
  0
LINE
  5
2E9
100
AcDbEntity
  8
CROP_MARKS
 62
     7
100
AcDbLine
 10
43.54015
 20
27.325119
 30
0.0
 11
43.878803
 21
27.325119
 31
0.0
  0
LINE
  5
2E8
100
AcDbEntity
  8
CROP_MARKS
 62
     7
100
AcDbLine
 10
43.878803
 20
27.325119
 30
0.0
 11
43.878803
 21
27.663772
 31
0.0
  0
LINE
  5
2E7
100
AcDbEntity
  8
CROP_MARKS
 62
     7
100
AcDbLine
 10
43.878803
 20
28.611518
 30
0.0
 11
43.878803
 21
28.949826
 31
0.0
  0
LINE
  5
2E6
100
AcDbEntity
  8
CROP_MARKS
 62
     7
100
AcDbLine
 10
43.878803
 20
28.949826
 30
0.0
 11
43.54015
 21
28.949826
 31
0.0
  0
MTEXT
  5
2E4
100
AcDbEntity
  8
SILKSCREEN
 62
     7
100
AcDbMText
 10
12.106865
 20
40.111419
 30
0.0
 40
0.216586
 41
0.0
 71
     1
 72
     2
  1
\fArial|b0|i0;\H0.2166;\C7;\U+0047\U+004E\U+0044
  7
STD
210
0.0
220
0.0
230
1.0
 11
0.0
 21
1.0
 31
0.0
 73
     1
 44
1.0
  0
MTEXT
  5
2E3
100
AcDbEntity
  8
SILKSCREEN
 62
     7
100
AcDbMText
 10
12.647745
 20
40.149143
 30
0.0
 40
0.216586
 41
0.0
 71
     1
 72
     2
  1
\fArial|b0|i0;\H0.2166;\C7;\U+002B\U+0056\U+0069\U+006E
  7
STD
210
0.0
220
0.0
230
1.0
 11
0.0
 21
1.0
 31
0.0
 73
     1
 44
1.0
  0
MTEXT
  5
2E2
100
AcDbEntity
  8
SILKSCREEN
 62
     7
100
AcDbMText
 10
11.5007
 20
41.155455
 30
0.0
 40
0.216586
 41
0.0
 71
     1
 72
     2
  1
\fArial|b0|i0;\H0.2166;\C7;\U+0050\U+0057\U+0052
  7
STD
210
0.0
220
0.0
230
1.0
 11
0.0
 21
1.0
 31
0.0
 73
     1
 44
1.0
  0
MTEXT
  5
2E1
100
AcDbEntity
  8
SILKSCREEN
 62
     7
100
AcDbMText
 10
9.035448
 20
28.227045
 30
0.0
 40
0.307651
 41
0.0
 71
     1
 72
     2
  1
\fArial Narrow|b0|i0;\H0.3077;\W1.10;\C7;\U+0032\U+0030\U+0033\U+002D\U+0037\U+0039\U+0036\U+002D\U+0035\U+0033\U+0030\U+0030
  7
STD
210
0.0
220
0.0
230
1.0
 11
0.0
 21
1.0
 31
0.0
 73
     1
 44
1.0
  0
MTEXT
  5
2E0
100
AcDbEntity
  8
SILKSCREEN
 62
     7
100
AcDbMText
 10
8.485783
 20
27.999325
 30
0.0
 40
0.307651
 41
0.0
 71
     1
 72
     2
  1
\fArial Narrow|b0|i0;\H0.3077;\W1.10;\C7;\U+0077\U+0077\U+0077\U+002E\U+0063\U+006F\U+006D\U+006E\U+0065\U+0074\U+002E\U+006E\U+0065\U+0074
  7
STD
210
0.0
220
0.0
230
1.0
 11
0.0
 21
1.0
 31
0.0
 73
     1
 44
1.0
  0
MTEXT
  5
2DF
100
AcDbEntity
  8
SILKSCREEN
 62
     7
100
AcDbMText
 10
7.93629
 20
26.499674
 30
0.0
 40
0.307651
 41
0.0
 71
     1
 72
     2
  1
\fArial Narrow|b0|i0;\H0.3077;\W1.10;\C7;\U+0043\U+004F\U+004D\U+004D\U+0055\U+004E\U+0049\U+0043\U+0041\U+0054\U+0049\U+004F\U+004E\U+0020\U+004E\U+0045\U+0054\U+0057\U+004F\U+0052\U+004B\U+0053
  7
STD
210
0.0
220
0.0
230
1.0
 11
0.0
 21
1.0
 31
0.0
 73
     1
 44
1.0
  0
INSERT
  5
19D
100
AcDbEntity
  8
SILKSCREEN
 62
     7
100
AcDbBlockReference
  2
AI9-BLK1
 10
7.37259
 20
29.480457
 30
0.0
  0
MTEXT
  5
19B
100
AcDbEntity
  8
SILKSCREEN
 62
     7
100
AcDbMText
 10
6.8158
 20
31.959806
 30
0.0
 40
0.152595
 41
0.0
 71
     1
 72
     2
  1
\fArial Narrow|b0|i0;\H0.1526;\W1.10;\C7;\U+0054\U+004D
  7
STD
210
0.0
220
0.0
230
1.0
 11
0.0
 21
1.0
 31
0.0
 73
     1
 44
1.0
  0
MTEXT
  5
19A
100
AcDbEntity
  8
SILKSCREEN
 62
     7
100
AcDbMText
 10
12.636691
 20
18.151519
 30
0.0
 40
0.24366
 41
0.0
 71
     1
 72
     2
  1
\fArial|b0|i0;\H0.2437;\C7;\U+0020\U+0050\U+004F\U+0057\U+0045\U+0052
  7
STD
210
0.0
220
0.0
230
1.0
 11
0.0
 21
1.0
 31
0.0
 73
     1
 44
1.0
  0
MTEXT
  5
199
100
AcDbEntity
  8
SILKSCREEN
 62
     7
100
AcDbMText
 10
11.553898
 20
18.17219
 30
0.0
 40
0.24366
 41
0.0
 71
     1
 72
     2
  1
\fArial|b0|i0;\H0.2437;\C7;\U+0020\U+004C\U+0049\U+004E\U+004B\U+0020\U+0041
  7
STD
210
0.0
220
0.0
230
1.0
 11
0.0
 21
1.0
 31
0.0
 73
     1
 44
1.0
  0
MTEXT
  5
198
100
AcDbEntity
  8
SILKSCREEN
 62
     7
100
AcDbMText
 10
4.587834
 20
18.825633
 30
0.0
 40
0.24366
 41
0.0
 71
     1
 72
     2
  1
\fArial|b0|i0;\H0.2437;\C7;\U+004C\U+0049\U+004E\U+004B\U+0020\U+0041\U+0020
  7
STD
210
0.0
220
0.0
230
1.0
 11
-1.0
 21
0.0
 31
0.0
 73
     1
 44
1.0
  0
MTEXT
  5
197
100
AcDbEntity
  8
SILKSCREEN
 62
     7
100
AcDbMText
 10
11.848889
 20
17.052787
 30
0.0
 40
0.24366
 41
0.0
 71
     1
 72
     2
  3
\fArial|b0|i0;\H0.2437;\C7;\U+0043\U+004E\U+0046\U+0045\U+0032\U+004D\U+0043\U+0020\U+0020\U+0020\U+0053\U+0049\U+004E\U+0047\U+004C\U+0045\U+0020\U+0031\U+0030\U+002F\U+0031\U+0030\U+0030\U+0020\U+004D\U+0045\U+0044\U+0049\U+0041\U+0020\U+0043\U+00
  1
4F\U+004E\U+0056\U+0045\U+0052\U+0054\U+0045\U+0052
  7
STD
210
0.0
220
0.0
230
1.0
 11
-1.0
 21
0.0
 31
0.0
 73
     1
 44
1.0
  0
LINE
  5
195
100
AcDbEntity
  8
ORIGINS
 62
     7
100
AcDbLine
 10
16.498735
 20
20.420114
 30
0.0
 11
16.634127
 21
20.420114
 31
0.0
  0
LINE
  5
194
100
AcDbEntity
  8
ORIGINS
 62
     7
100
AcDbLine
 10
3.671955
 20
20.420114
 30
0.0
 11
3.80752
 21
20.420114
 31
0.0
  0
LINE
  5
193
100
AcDbEntity
  8
ORIGINS
 62
     7
100
AcDbLine
 10
56.446512
 20
17.941713
 30
0.0
 11
56.446512
 21
17.806665
 31
0.0
  0
LINE
  5
192
100
AcDbEntity
  8
ORIGINS
 62
     7
100
AcDbLine
 10
56.446512
 20
30.768492
 30
0.0
 11
56.446512
 21
30.6331
 31
0.0
  0
LINE
  5
191
100
AcDbEntity
  8
ORIGINS
 62
     7
100
AcDbLine
 10
50.359028
 20
20.833181
 30
0.0
 11
50.359028
 21
20.697789
 31
0.0
  0
LINE
  5
190
100
AcDbEntity
  8
ORIGINS
 62
     7
100
AcDbLine
 10
50.359028
 20
33.659961
 30
0.0
 11
50.359028
 21
33.524569
 31
0.0
  0
LINE
  5
18F
100
AcDbEntity
  8
ORIGINS
 62
     7
100
AcDbLine
 10
39.092532
 20
22.175735
 30
0.0
 11
39.092532
 21
22.039998
 31
0.0
  0
LINE
  5
18E
100
AcDbEntity
  8
ORIGINS
 62
     7
100
AcDbLine
 10
39.092532
 20
35.00217
 30
0.0
 11
39.092532
 21
34.86695
 31
0.0
  0
LINE
  5
18B
100
AcDbEntity
  8
0
 62
     7
100
AcDbLine
 10
0.124712
 20
44.213494
 30
0.0
 11
0.124712
 21
15.786461
 31
0.0
  0
LINE
  5
18A
100
AcDbEntity
  8
0
 62
     7
100
AcDbLine
 10
0.124712
 20
15.786461
 30
0.0
 11
21.783339
 21
15.786461
 31
0.0
  0
LINE
  5
189
100
AcDbEntity
  8
0
 62
     7
100
AcDbLine
 10
21.783339
 20
15.786461
 30
0.0
 11
21.783339
 21
44.213494
 31
0.0
  0
LINE
  5
188
100
AcDbEntity
  8
0
 62
     7
100
AcDbLine
 10
21.783339
 20
44.213494
 30
0.0
 11
0.124712
 21
44.213494
 31
0.0
  0
MTEXT
  5
187
100
AcDbEntity
  8
0
 62
     7
100
AcDbMText
 10
16.750528
 20
28.605661
 30
0.0
 40
0.676832
 41
0.0
 71
     1
 72
     2
  1
\fArial|b0|i0;\H0.6768;\C7;\U+0043\U+004E\U+0046\U+0045\U+0032\U+004D\U+0043
  7
STD
210
0.0
220
0.0
230
1.0
 11
0.0
 21
1.0
 31
0.0
 73
     1
 44
1.0
  0
CIRCLE
  5
186
100
AcDbEntity
  8
0
 62
     7
100
AcDbCircle
 10
2.919029
 20
42.386732
 30
0.0
 40
0.31402
  0
CIRCLE
  5
185
100
AcDbEntity
  8
0
 62
     7
100
AcDbCircle
 10
2.919029
 20
19.403811
 30
0.0
 40
0.31402
  0
LINE
  5
184
100
AcDbEntity
  8
0
 62
     7
100
AcDbLine
 10
1.161514
 20
21.907018
 30
0.0
 11
1.161514
 21
37.05183
 31
0.0
  0
SPLINE
  5
183
100
AcDbEntity
  8
0
 62
     7
100
AcDbSpline
210
0.0
220
0.0
230
1.0
 70
     8
 71
     3
 72
     8
 73
     4
 74
     0
 42
0.00000001
 43
0.00000001
 40
0.0
 40
0.0
 40
0.0
 40
0.0
 40
1.0
 40
1.0
 40
1.0
 40
1.0
 10
1.5892225477430555
 20
37.479538302951383
 30
0.0
 10
1.3530612521701388
 20
37.479538302951383
 30
0.0
 10
1.1615139431423611
 20
37.288163248697913
 30
0.0
 10
1.1615139431423611
 20
37.051829698350694
 30
0.0
  0
LINE
  5
182
100
AcDbEntity
  8
0
 62
     7
100
AcDbLine
 10
15.120524
 20
21.907018
 30
0.0
 11
15.120524
 21
37.05183
 31
0.0
  0
SPLINE
  5
181
100
AcDbEntity
  8
0
 62
     7
100
AcDbSpline
210
0.0
220
0.0
230
1.0
 70
     8
 71
     3
 72
     8
 73
     4
 74
     0
 42
0.00000001
 43
0.00000001
 40
0.0
 40
0.0
 40
0.0
 40
0.0
 40
1.0
 40
1.0
 40
1.0
 40
1.0
 10
14.692643229166665
 20
21.479136827256941
 30
0.0
 10
14.928976779513887
 20
21.479136827256941
 30
0.0
 10
15.120524088541666
 20
21.671028645833331
 30
0.0
 10
15.120524088541666
 20
21.907017686631942
 30
0.0
  0
SPLINE
  5
180
100
AcDbEntity
  8
0
 62
     7
100
AcDbSpline
210
0.0
220
0.0
230
1.0
 70
     8
 71
     3
 72
     8
 73
     4
 74
     0
 42
0.00000001
 43
0.00000001
 40
0.0
 40
0.0
 40
0.0
 40
0.0
 40
1.0
 40
1.0
 40
1.0
 40
1.0
 10
15.120524088541666
 20
37.051829698350694
 30
0.0
 10
15.120524088541666
 20
37.288163248697913
 30
0.0
 10
14.928976779513887
 20
37.479538302951383
 30
0.0
 10
14.692643229166665
 20
37.479538302951383
 30
0.0
  0
LINE
  5
17F
100
AcDbEntity
  8
0
 62
     7
100
AcDbLine
 10
14.695399
 20
28.6346
 30
0.0
 11
14.695399
 21
29.1648
 31
0.0
  0
LINE
  5
17E
100
AcDbEntity
  8
0
 62
     7
100
AcDbLine
 10
14.695399
 20
29.794219
 30
0.0
 11
14.695399
 21
30.324075
 31
0.0
  0
LINE
  5
17D
100
AcDbEntity
  8
0
 62
     7
100
AcDbLine
 10
14.273203
 20
28.6346
 30
0.0
 11
14.273203
 21
29.1648
 31
0.0
  0
LINE
  5
17C
100
AcDbEntity
  8
0
 62
     7
100
AcDbLine
 10
14.273203
 20
29.794219
 30
0.0
 11
14.273203
 21
30.324075
 31
0.0
  0
LINE
  5
17B
100
AcDbEntity
  8
0
 62
     7
100
AcDbLine
 10
1.015442
 20
21.479137
 30
0.0
 11
15.266768
 21
21.479137
 31
0.0
  0
SPLINE
  5
17A
100
AcDbEntity
  8
0
 62
     7
100
AcDbSpline
210
0.0
220
0.0
230
1.0
 70
     8
 71
     3
 72
     8
 73
     4
 74
     0
 42
0.00000001
 43
0.00000001
 40
0.0
 40
0.0
 40
0.0
 40
0.0
 40
1.0
 40
1.0
 40
1.0
 40
1.0
 10
1.1615139431423611
 20
21.907017686631942
 30
0.0
 10
1.1615139431423611
 20
21.671028645833331
 30
0.0
 10
1.3530612521701388
 20
21.479136827256941
 30
0.0
 10
1.5892225477430555
 20
21.479136827256941
 30
0.0
  0
LINE
  5
179
100
AcDbEntity
  8
0
 62
     7
100
AcDbLine
 10
1.015442
 20
21.235913
 30
0.0
 11
15.266768
 21
21.235913
 31
0.0
  0
LINE
  5
178
100
AcDbEntity
  8
0
 62
     7
100
AcDbLine
 10
1.589223
 20
37.479538
 30
0.0
 11
14.692643
 21
37.479538
 31
0.0
  0
LINE
  5
177
100
AcDbEntity
  8
0
 62
     7
100
AcDbLine
 10
1.297251
 20
42.541245
 30
0.0
 11
2.439817
 21
42.541245
 31
0.0
  0
LINE
  5
176
100
AcDbEntity
  8
0
 62
     7
100
AcDbLine
 10
13.843083
 20
42.541245
 30
0.0
 11
14.985649
 21
42.541245
 31
0.0
  0
LINE
  5
175
100
AcDbEntity
  8
0
 62
     7
100
AcDbLine
 10
13.694255
 20
42.811857
 30
0.0
 11
14.985649
 21
42.811857
 31
0.0
  0
SPLINE
  5
174
100
AcDbEntity
  8
0
 62
     7
100
AcDbSpline
210
0.0
220
0.0
230
1.0
 70
     8
 71
     3
 72
    11
 73
     7
 74
     0
 42
0.00000001
 43
0.00000001
 40
0.0
 40
0.0
 40
0.0
 40
0.0
 40
1.0
 40
1.0
 40
1.0
 40
2.0
 40
2.0
 40
2.0
 40
2.0
 10
14.985648600260415
 20
42.541244845920133
 30
0.0
 10
15.060407172309027
 20
42.541244845920133
 30
0.0
 10
15.121040852864581
 20
42.601706271701381
 30
0.0
 10
15.121040852864581
 20
42.676464843749997
 30
0.0
 10
15.121040852864581
 20
42.751395670572911
 30
0.0
 10
15.060407172309027
 20
42.81185709635416
 30
0.0
 10
14.985648600260415
 20
42.81185709635416
 30
0.0
  0
SPLINE
  5
173
100
AcDbEntity
  8
0
 62
     7
100
AcDbSpline
210
0.0
220
0.0
230
1.0
 70
     8
 71
     3
 72
    11
 73
     7
 74
     0
 42
0.00000001
 43
0.00000001
 40
0.0
 40
0.0
 40
0.0
 40
0.0
 40
1.0
 40
1.0
 40
1.0
 40
2.0
 40
2.0
 40
2.0
 40
2.0
 10
1.2972507052951388
 20
42.81185709635416
 30
0.0
 10
1.2226643880208332
 20
42.81185709635416
 30
0.0
 10
1.1620307074652776
 20
42.751395670572911
 30
0.0
 10
1.1620307074652776
 20
42.676464843749997
 30
0.0
 10
1.1620307074652776
 20
42.601706271701381
 30
0.0
 10
1.2226643880208332
 20
42.541244845920133
 30
0.0
 10
1.2972507052951388
 20
42.541244845920133
 30
0.0
  0
LINE
  5
172
100
AcDbEntity
  8
0
 62
     7
100
AcDbLine
 10
2.439472
 20
37.479538
 30
0.0
 11
2.439472
 21
21.479137
 31
0.0
  0
LINE
  5
171
100
AcDbEntity
  8
0
 62
     7
100
AcDbLine
 10
13.842738
 20
37.479538
 30
0.0
 11
13.842738
 21
21.479137
 31
0.0
  0
LINE
  5
170
100
AcDbEntity
  8
0
 62
     7
100
AcDbLine
 10
1.297251
 20
42.811857
 30
0.0
 11
2.588645
 21
42.811857
 31
0.0
  0
SPLINE
  5
16F
100
AcDbEntity
  8
0
 62
     7
100
AcDbSpline
210
0.0
220
0.0
230
1.0
 70
     8
 71
     3
 72
    11
 73
     7
 74
     0
 42
0.00000001
 43
0.00000001
 40
0.0
 40
0.0
 40
0.0
 40
0.0
 40
1.0
 40
1.0
 40
1.0
 40
2.0
 40
2.0
 40
2.0
 40
2.0
 10
14.273202853732638
 20
28.634600151909719
 30
0.0
 10
14.273202853732638
 20
28.518500434027775
 30
0.0
 10
14.367598470052082
 20
28.42341579861111
 30
0.0
 10
14.484214952256943
 20
28.42341579861111
 30
0.0
 10
14.60100368923611
 20
28.42341579861111
 30
0.0
 10
14.695399305555554
 20
28.518500434027775
 30
0.0
 10
14.695399305555554
 20
28.634600151909719
 30
0.0
  0
SPLINE
  5
16E
100
AcDbEntity
  8
0
 62
     7
100
AcDbSpline
210
0.0
220
0.0
230
1.0
 70
     8
 71
     3
 72
    11
 73
     7
 74
     0
 42
0.00000001
 43
0.00000001
 40
0.0
 40
0.0
 40
0.0
 40
0.0
 40
1.0
 40
1.0
 40
1.0
 40
2.0
 40
2.0
 40
2.0
 40
2.0
 10
14.695399305555554
 20
30.324074978298608
 30
0.0
 10
14.695399305555554
 20
30.440863715277775
 30
0.0
 10
14.60100368923611
 20
30.535259331597221
 30
0.0
 10
14.484214952256943
 20
30.535259331597221
 30
0.0
 10
14.367598470052082
 20
30.535259331597221
 30
0.0
 10
14.273202853732638
 20
30.440863715277775
 30
0.0
 10
14.273202853732638
 20
30.324074978298608
 30
0.0
  0
SPLINE
  5
16D
100
AcDbEntity
  8
0
 62
     7
100
AcDbSpline
210
0.0
220
0.0
230
1.0
 70
     8
 71
     3
 72
    11
 73
     7
 74
     0
 42
0.00000001
 43
0.00000001
 40
0.0
 40
0.0
 40
0.0
 40
0.0
 40
1.0
 40
1.0
 40
1.0
 40
2.0
 40
2.0
 40
2.0
 40
2.0
 10
14.273202853732638
 20
29.79421929253472
 30
0.0
 10
14.099225531684027
 20
29.677775065104164
 30
0.0
 10
14.052888997395833
 20
29.442130533854165
 30
0.0
 10
14.169505479600693
 20
29.268497721354166
 30
0.0
 10
14.196893988715276
 20
29.227501085069441
 30
0.0
 10
14.232206217447915
 20
29.192016601562496
 30
0.0
 10
14.273202853732638
 20
29.164800347222219
 30
0.0
  0
SPLINE
  5
16C
100
AcDbEntity
  8
0
 62
     7
100
AcDbSpline
210
0.0
220
0.0
230
1.0
 70
     8
 71
     3
 72
    11
 73
     7
 74
     0
 42
0.00000001
 43
0.00000001
 40
0.0
 40
0.0
 40
0.0
 40
0.0
 40
1.0
 40
1.0
 40
1.0
 40
2.0
 40
2.0
 40
2.0
 40
2.0
 10
14.695399305555554
 20
29.164800347222219
 30
0.0
 10
14.869204372829859
 20
29.281589084201386
 30
0.0
 10
14.915713161892359
 20
29.516544596354166
 30
0.0
 10
14.798924424913194
 20
29.690866427951388
 30
0.0
 10
14.77153591579861
 20
29.731518554687497
 30
0.0
 10
14.736568196614583
 20
29.766658528645831
 30
0.0
 10
14.695399305555554
 20
29.79421929253472
 30
0.0
  0
LINE
  5
16B
100
AcDbEntity
  8
0
 62
     7
100
AcDbLine
 10
2.009007
 20
28.6346
 30
0.0
 11
2.009007
 21
29.1648
 31
0.0
  0
LINE
  5
16A
100
AcDbEntity
  8
0
 62
     7
100
AcDbLine
 10
2.009007
 20
29.794219
 30
0.0
 11
2.009007
 21
30.324075
 31
0.0
  0
LINE
  5
169
100
AcDbEntity
  8
0
 62
     7
100
AcDbLine
 10
1.586639
 20
28.6346
 30
0.0
 11
1.586639
 21
29.1648
 31
0.0
  0
LINE
  5
168
100
AcDbEntity
  8
0
 62
     7
100
AcDbLine
 10
1.586639
 20
29.794219
 30
0.0
 11
1.586639
 21
30.324075
 31
0.0
  0
SPLINE
  5
167
100
AcDbEntity
  8
0
 62
     7
100
AcDbSpline
210
0.0
220
0.0
230
1.0
 70
     8
 71
     3
 72
    11
 73
     7
 74
     0
 42
0.00000001
 43
0.00000001
 40
0.0
 40
0.0
 40
0.0
 40
0.0
 40
1.0
 40
1.0
 40
1.0
 40
2.0
 40
2.0
 40
2.0
 40
2.0
 10
1.586638726128472
 20
28.634600151909719
 30
0.0
 10
1.586638726128472
 20
28.518500434027775
 30
0.0
 10
1.6810343424479166
 20
28.42341579861111
 30
0.0
 10
1.7976508246527776
 20
28.42341579861111
 30
0.0
 10
1.9142673068576388
 20
28.42341579861111
 30
0.0
 10
2.0090074327256944
 20
28.518500434027775
 30
0.0
 10
2.0090074327256944
 20
28.634600151909719
 30
0.0
  0
SPLINE
  5
166
100
AcDbEntity
  8
0
 62
     7
100
AcDbSpline
210
0.0
220
0.0
230
1.0
 70
     8
 71
     3
 72
    11
 73
     7
 74
     0
 42
0.00000001
 43
0.00000001
 40
0.0
 40
0.0
 40
0.0
 40
0.0
 40
1.0
 40
1.0
 40
1.0
 40
2.0
 40
2.0
 40
2.0
 40
2.0
 10
2.0090074327256944
 20
30.324074978298608
 30
0.0
 10
2.0090074327256944
 20
30.440863715277775
 30
0.0
 10
1.9142673068576388
 20
30.535259331597221
 30
0.0
 10
1.7976508246527776
 20
30.535259331597221
 30
0.0
 10
1.6810343424479166
 20
30.535259331597221
 30
0.0
 10
1.586638726128472
 20
30.440863715277775
 30
0.0
 10
1.586638726128472
 20
30.324074978298608
 30
0.0
  0
SPLINE
  5
165
100
AcDbEntity
  8
0
 62
     7
100
AcDbSpline
210
0.0
220
0.0
230
1.0
 70
     8
 71
     3
 72
    11
 73
     7
 74
     0
 42
0.00000001
 43
0.00000001
 40
0.0
 40
0.0
 40
0.0
 40
0.0
 40
1.0
 40
1.0
 40
1.0
 40
2.0
 40
2.0
 40
2.0
 40
2.0
 10
1.586638726128472
 20
29.79421929253472
 30
0.0
 10
1.4126614040798611
 20
29.677775065104164
 30
0.0
 10
1.3663248697916666
 20
29.442130533854165
 30
0.0
 10
1.4829413519965275
 20
29.268497721354166
 30
0.0
 10
1.5105021158854166
 20
29.227501085069441
 30
0.0
 10
1.54564208984375
 20
29.192016601562496
 30
0.0
 10
1.586638726128472
 20
29.164800347222219
 30
0.0
  0
SPLINE
  5
164
100
AcDbEntity
  8
0
 62
     7
100
AcDbSpline
210
0.0
220
0.0
230
1.0
 70
     8
 71
     3
 72
    11
 73
     7
 74
     0
 42
0.00000001
 43
0.00000001
 40
0.0
 40
0.0
 40
0.0
 40
0.0
 40
1.0
 40
1.0
 40
1.0
 40
2.0
 40
2.0
 40
2.0
 40
2.0
 10
2.0090074327256944
 20
29.164800347222219
 30
0.0
 10
2.1826402452256941
 20
29.281589084201386
 30
0.0
 10
2.2291490342881941
 20
29.516544596354166
 30
0.0
 10
2.1125325520833331
 20
29.690866427951388
 30
0.0
 10
2.0849717881944443
 20
29.731518554687497
 30
0.0
 10
2.0498318142361107
 20
29.766658528645831
 30
0.0
 10
2.0090074327256944
 20
29.79421929253472
 30
0.0
  0
LINE
  5
163
100
AcDbEntity
  8
0
 62
     7
100
AcDbLine
 10
13.079305
 20
37.647487
 30
0.0
 11
13.079305
 21
38.432624
 31
0.0
  0
LINE
  5
162
100
AcDbEntity
  8
0
 62
     7
100
AcDbLine
 10
12.001679
 20
37.647487
 30
0.0
 11
12.001679
 21
38.432624
 31
0.0
  0
LINE
  5
161
100
AcDbEntity
  8
0
 62
     7
100
AcDbLine
 10
12.353596
 20
37.647487
 30
0.0
 11
12.353596
 21
37.977699
 31
0.0
  0
LINE
  5
160
100
AcDbEntity
  8
0
 62
     7
100
AcDbLine
 10
12.532396
 20
37.647487
 30
0.0
 11
12.532396
 21
37.977699
 31
0.0
  0
LINE
  5
15F
100
AcDbEntity
  8
0
 62
     7
100
AcDbLine
 10
12.001679
 20
38.432624
 30
0.0
 11
13.079305
 21
38.432624
 31
0.0
  0
LINE
  5
15E
100
AcDbEntity
  8
0
 62
     7
100
AcDbLine
 10
12.353596
 20
37.977699
 30
0.0
 11
12.532396
 21
37.977699
 31
0.0
  0
LINE
  5
15D
100
AcDbEntity
  8
0
 62
     7
100
AcDbLine
 10
11.893848
 20
42.007772
 30
0.0
 11
13.190754
 21
42.007772
 31
0.0
  0
LINE
  5
15C
100
AcDbEntity
  8
0
 62
     7
100
AcDbLine
 10
12.002024
 20
41.298427
 30
0.0
 11
13.07965
 21
41.298427
 31
0.0
  0
LINE
  5
15B
100
AcDbEntity
  8
0
 62
     7
100
AcDbLine
 10
12.134832
 20
41.366123
 30
0.0
 11
12.405444
 21
41.366123
 31
0.0
  0
LINE
  5
15A
100
AcDbEntity
  8
0
 62
     7
100
AcDbLine
 10
12.676229
 20
41.366123
 30
0.0
 11
12.947013
 21
41.366123
 31
0.0
  0
LINE
  5
159
100
AcDbEntity
  8
0
 62
     7
100
AcDbLine
 10
11.893848
 20
41.098094
 30
0.0
 11
12.354112
 21
41.098094
 31
0.0
  0
LINE
  5
158
100
AcDbEntity
  8
0
 62
     7
100
AcDbLine
 10
12.532741
 20
41.098094
 30
0.0
 11
13.190754
 21
41.098094
 31
0.0
  0
LINE
  5
157
100
AcDbEntity
  8
0
 62
     7
100
AcDbLine
 10
12.354112
 20
40.919466
 30
0.0
 11
12.532741
 21
40.919466
 31
0.0
  0
LINE
  5
156
100
AcDbEntity
  8
0
 62
     7
100
AcDbLine
 10
12.947013
 20
41.298427
 30
0.0
 11
12.947013
 21
41.366123
 31
0.0
  0
LINE
  5
155
100
AcDbEntity
  8
0
 62
     7
100
AcDbLine
 10
12.676229
 20
41.298427
 30
0.0
 11
12.676229
 21
41.366123
 31
0.0
  0
LINE
  5
154
100
AcDbEntity
  8
0
 62
     7
100
AcDbLine
 10
12.405444
 20
41.298427
 30
0.0
 11
12.405444
 21
41.366123
 31
0.0
  0
LINE
  5
153
100
AcDbEntity
  8
0
 62
     7
100
AcDbLine
 10
12.134832
 20
41.298427
 30
0.0
 11
12.134832
 21
41.366123
 31
0.0
  0
LINE
  5
152
100
AcDbEntity
  8
0
 62
     7
100
AcDbLine
 10
13.190754
 20
41.098094
 30
0.0
 11
13.190754
 21
42.007772
 31
0.0
  0
LINE
  5
151
100
AcDbEntity
  8
0
 62
     7
100
AcDbLine
 10
11.893848
 20
41.098094
 30
0.0
 11
11.893848
 21
42.007772
 31
0.0
  0
LINE
  5
150
100
AcDbEntity
  8
0
 62
     7
100
AcDbLine
 10
12.002024
 20
41.298427
 30
0.0
 11
12.002024
 21
41.866351
 31
0.0
  0
LINE
  5
14F
100
AcDbEntity
  8
0
 62
     7
100
AcDbLine
 10
13.07965
 20
41.298427
 30
0.0
 11
13.07965
 21
41.865834
 31
0.0
  0
CIRCLE
  5
14E
100
AcDbEntity
  8
0
 62
     7
100
AcDbCircle
 10
12.270138
 20
41.609691
 30
0.0
 40
0.135306
  0
CIRCLE
  5
14D
100
AcDbEntity
  8
0
 62
     7
100
AcDbCircle
 10
12.811621
 20
41.609691
 30
0.0
 40
0.135392
  0
CIRCLE
  5
14C
100
AcDbEntity
  8
0
 62
     7
100
AcDbCircle
 10
12.270138
 20
41.609691
 30
0.0
 40
0.06761
  0
CIRCLE
  5
14B
100
AcDbEntity
  8
0
 62
     7
100
AcDbCircle
 10
12.811621
 20
41.609691
 30
0.0
 40
0.067696
  0
SPLINE
  5
14A
100
AcDbEntity
  8
0
 62
     7
100
AcDbSpline
210
0.0
220
0.0
230
1.0
 70
     8
 71
     3
 72
     8
 73
     4
 74
     0
 42
0.00000001
 43
0.00000001
 40
0.0
 40
0.0
 40
0.0
 40
0.0
 40
1.0
 40
1.0
 40
1.0
 40
1.0
 10
12.486576334635416
 20
41.866350640190966
 30
0.0
 10
12.334130859375
 20
41.942487250434027
 30
0.0
 10
12.15464138454861
 20
41.942487250434027
 30
0.0
 10
12.002023654513888
 20
41.866350640190966
 30
0.0
  0
SPLINE
  5
149
100
AcDbEntity
  8
0
 62
     7
100
AcDbSpline
210
0.0
220
0.0
230
1.0
 70
     8
 71
     3
 72
     8
 73
     4
 74
     0
 42
0.00000001
 43
0.00000001
 40
0.0
 40
0.0
 40
0.0
 40
0.0
 40
1.0
 40
1.0
 40
1.0
 40
1.0
 10
13.079649522569444
 20
41.865833875868049
 30
0.0
 10
12.926859537760416
 20
41.942487250434027
 30
0.0
 10
12.747025553385415
 20
41.942659505208333
 30
0.0
 10
12.593891059027778
 20
41.866350640190966
 30
0.0
  0
LINE
  5
148
100
AcDbEntity
  8
0
 62
     7
100
AcDbLine
 10
12.48606
 20
41.867729
 30
0.0
 11
12.595441
 21
41.867729
 31
0.0
  0
LINE
  5
147
100
AcDbEntity
  8
0
 62
     7
100
AcDbLine
 10
12.354112
 20
41.141158
 30
0.0
 11
12.532741
 21
41.141158
 31
0.0
  0
LINE
  5
146
100
AcDbEntity
  8
0
 62
     7
100
AcDbLine
 10
12.354112
 20
40.919466
 30
0.0
 11
12.354112
 21
41.141158
 31
0.0
  0
LINE
  5
145
100
AcDbEntity
  8
0
 62
     7
100
AcDbLine
 10
12.532741
 20
40.919466
 30
0.0
 11
12.532741
 21
41.141158
 31
0.0
  0
LINE
  5
144
100
AcDbEntity
  8
0
 62
     7
100
AcDbLine
 10
13.848078
 20
21.479137
 30
0.0
 11
13.848078
 21
37.479538
 31
0.0
  0
LINE
  5
143
100
AcDbEntity
  8
0
 62
     7
100
AcDbLine
 10
2.43396
 20
21.479137
 30
0.0
 11
2.43396
 21
37.479538
 31
0.0
  0
LINE
  5
142
100
AcDbEntity
  8
0
 62
     7
100
AcDbLine
 10
2.43396
 20
37.479538
 30
0.0
 11
13.848078
 21
37.479538
 31
0.0
  0
LINE
  5
141
100
AcDbEntity
  8
0
 62
     7
100
AcDbLine
 10
2.442228
 20
37.647487
 30
0.0
 11
13.848078
 21
37.647487
 31
0.0
  0
LINE
  5
140
100
AcDbEntity
  8
0
 62
     7
100
AcDbLine
 10
2.43396
 20
21.479137
 30
0.0
 11
13.848078
 21
21.479137
 31
0.0
  0
LINE
  5
13F
100
AcDbEntity
  8
0
 62
     7
100
AcDbLine
 10
2.569697
 20
39.879909
 30
0.0
 11
6.297807
 21
39.879909
 31
0.0
  0
LINE
  5
13E
100
AcDbEntity
  8
0
 62
     7
100
AcDbLine
 10
9.985265
 20
39.879909
 30
0.0
 11
13.71303
 21
39.879909
 31
0.0
  0
LINE
  5
13D
100
AcDbEntity
  8
0
 62
     7
100
AcDbLine
 10
1.015442
 20
21.235913
 30
0.0
 11
1.015442
 21
21.479137
 31
0.0
  0
LINE
  5
13C
100
AcDbEntity
  8
0
 62
     7
100
AcDbLine
 10
15.266768
 20
21.235913
 30
0.0
 11
15.266768
 21
21.479137
 31
0.0
  0
LINE
  5
13B
100
AcDbEntity
  8
0
 62
     7
100
AcDbLine
 10
14.711764
 20
21.96834
 30
0.0
 11
14.711764
 21
21.697211
 31
0.0
  0
LINE
  5
13A
100
AcDbEntity
  8
0
 62
     7
100
AcDbLine
 10
14.397743
 20
21.96834
 30
0.0
 11
14.397743
 21
21.697211
 31
0.0
  0
LINE
  5
139
100
AcDbEntity
  8
0
 62
     7
100
AcDbLine
 10
14.663015
 20
22.103733
 30
0.0
 11
14.663015
 21
21.995557
 31
0.0
  0
LINE
  5
138
100
AcDbEntity
  8
0
 62
     7
100
AcDbLine
 10
14.663015
 20
21.670684
 30
0.0
 11
14.663015
 21
21.479137
 31
0.0
  0
LINE
  5
137
100
AcDbEntity
  8
0
 62
     7
100
AcDbLine
 10
14.446491
 20
22.103733
 30
0.0
 11
14.446491
 21
21.995557
 31
0.0
  0
LINE
  5
136
100
AcDbEntity
  8
0
 62
     7
100
AcDbLine
 10
14.446491
 20
21.670684
 30
0.0
 11
14.446491
 21
21.479137
 31
0.0
  0
LINE
  5
135
100
AcDbEntity
  8
0
 62
     7
100
AcDbLine
 10
14.987888
 20
21.210075
 30
0.0
 11
14.987888
 21
20.411502
 31
0.0
  0
SPLINE
  5
134
100
AcDbEntity
  8
0
 62
     7
100
AcDbSpline
210
0.0
220
0.0
230
1.0
 70
     8
 71
     3
 72
     8
 73
     4
 74
     0
 42
0.00000001
 43
0.00000001
 40
0.0
 40
0.0
 40
0.0
 40
0.0
 40
1.0
 40
1.0
 40
1.0
 40
1.0
 10
14.933799913194443
 20
20.357413736979165
 30
0.0
 10
14.963599989149305
 20
20.357413736979165
 30
0.0
 10
14.987887912326388
 20
20.381529405381944
 30
0.0
 10
14.987887912326388
 20
20.411501736111109
 30
0.0
  0
LINE
  5
133
100
AcDbEntity
  8
0
 62
     7
100
AcDbLine
 10
14.121619
 20
21.210075
 30
0.0
 11
14.121619
 21
20.411502
 31
0.0
  0
LINE
  5
132
100
AcDbEntity
  8
0
 62
     7
100
AcDbLine
 10
14.175707
 20
21.210075
 30
0.0
 11
14.175707
 21
20.357414
 31
0.0
  0
LINE
  5
131
100
AcDbEntity
  8
0
 62
     7
100
AcDbLine
 10
14.229795
 20
21.210075
 30
0.0
 11
14.229795
 21
20.357414
 31
0.0
  0
LINE
  5
130
100
AcDbEntity
  8
0
 62
     7
100
AcDbLine
 10
14.284055
 20
21.210075
 30
0.0
 11
14.284055
 21
20.357414
 31
0.0
  0
LINE
  5
12F
100
AcDbEntity
  8
0
 62
     7
100
AcDbLine
 10
14.338143
 20
21.210075
 30
0.0
 11
14.338143
 21
20.357414
 31
0.0
  0
LINE
  5
12E
100
AcDbEntity
  8
0
 62
     7
100
AcDbLine
 10
14.392231
 20
21.210075
 30
0.0
 11
14.392231
 21
20.357414
 31
0.0
  0
LINE
  5
12D
100
AcDbEntity
  8
0
 62
     7
100
AcDbLine
 10
14.446491
 20
21.210075
 30
0.0
 11
14.446491
 21
20.357414
 31
0.0
  0
LINE
  5
12C
100
AcDbEntity
  8
0
 62
     7
100
AcDbLine
 10
14.500579
 20
21.210075
 30
0.0
 11
14.500579
 21
20.357414
 31
0.0
  0
LINE
  5
12B
100
AcDbEntity
  8
0
 62
     7
100
AcDbLine
 10
14.554667
 20
21.210075
 30
0.0
 11
14.554667
 21
20.357414
 31
0.0
  0
LINE
  5
12A
100
AcDbEntity
  8
0
 62
     7
100
AcDbLine
 10
14.608927
 20
21.210075
 30
0.0
 11
14.608927
 21
20.357414
 31
0.0
  0
LINE
  5
129
100
AcDbEntity
  8
0
 62
     7
100
AcDbLine
 10
14.663015
 20
21.210075
 30
0.0
 11
14.663015
 21
20.357414
 31
0.0
  0
LINE
  5
128
100
AcDbEntity
  8
0
 62
     7
100
AcDbLine
 10
14.717103
 20
21.210075
 30
0.0
 11
14.717103
 21
20.357414
 31
0.0
  0
LINE
  5
127
100
AcDbEntity
  8
0
 62
     7
100
AcDbLine
 10
14.771364
 20
21.210075
 30
0.0
 11
14.771364
 21
20.357414
 31
0.0
  0
LINE
  5
126
100
AcDbEntity
  8
0
 62
     7
100
AcDbLine
 10
14.825452
 20
21.210075
 30
0.0
 11
14.825452
 21
20.357414
 31
0.0
  0
LINE
  5
125
100
AcDbEntity
  8
0
 62
     7
100
AcDbLine
 10
14.87954
 20
21.210075
 30
0.0
 11
14.87954
 21
20.357414
 31
0.0
  0
LINE
  5
124
100
AcDbEntity
  8
0
 62
     7
100
AcDbLine
 10
14.9338
 20
21.210075
 30
0.0
 11
14.9338
 21
20.357414
 31
0.0
  0
LINE
  5
123
100
AcDbEntity
  8
0
 62
     7
100
AcDbLine
 10
14.9338
 20
20.357414
 30
0.0
 11
14.175707
 21
20.357414
 31
0.0
  0
SPLINE
  5
122
100
AcDbEntity
  8
0
 62
     7
100
AcDbSpline
210
0.0
220
0.0
230
1.0
 70
     8
 71
     3
 72
     8
 73
     4
 74
     0
 42
0.00000001
 43
0.00000001
 40
0.0
 40
0.0
 40
0.0
 40
0.0
 40
1.0
 40
1.0
 40
1.0
 40
1.0
 10
14.121618652343749
 20
20.411501736111109
 30
0.0
 10
14.121618652343749
 20
20.381529405381944
 30
0.0
 10
14.145734320746527
 20
20.357413736979165
 30
0.0
 10
14.175706651475693
 20
20.357413736979165
 30
0.0
  0
LINE
  5
121
100
AcDbEntity
  8
0
 62
     7
100
AcDbLine
 10
14.987888
 20
21.210075
 30
0.0
 11
14.121619
 21
21.210075
 31
0.0
  0
LINE
  5
120
100
AcDbEntity
  8
0
 62
     7
100
AcDbLine
 10
14.690059
 20
21.995557
 30
0.0
 11
14.419275
 21
21.995557
 31
0.0
  0
LINE
  5
11F
100
AcDbEntity
  8
0
 62
     7
100
AcDbLine
 10
14.711764
 20
21.96834
 30
0.0
 11
14.397743
 21
21.96834
 31
0.0
  0
LINE
  5
11E
100
AcDbEntity
  8
0
 62
     7
100
AcDbLine
 10
14.690059
 20
21.941124
 30
0.0
 11
14.419275
 21
21.941124
 31
0.0
  0
LINE
  5
11D
100
AcDbEntity
  8
0
 62
     7
100
AcDbLine
 10
14.711764
 20
21.913908
 30
0.0
 11
14.397743
 21
21.913908
 31
0.0
  0
LINE
  5
11C
100
AcDbEntity
  8
0
 62
     7
100
AcDbLine
 10
14.690059
 20
21.887036
 30
0.0
 11
14.419275
 21
21.887036
 31
0.0
  0
LINE
  5
11B
100
AcDbEntity
  8
0
 62
     7
100
AcDbLine
 10
14.711764
 20
21.85982
 30
0.0
 11
14.397743
 21
21.85982
 31
0.0
  0
LINE
  5
11A
100
AcDbEntity
  8
0
 62
     7
100
AcDbLine
 10
14.690059
 20
21.832948
 30
0.0
 11
14.419275
 21
21.832948
 31
0.0
  0
LINE
  5
119
100
AcDbEntity
  8
0
 62
     7
100
AcDbLine
 10
14.711764
 20
21.805732
 30
0.0
 11
14.397743
 21
21.805732
 31
0.0
  0
LINE
  5
118
100
AcDbEntity
  8
0
 62
     7
100
AcDbLine
 10
14.690059
 20
21.77886
 30
0.0
 11
14.419275
 21
21.77886
 31
0.0
  0
LINE
  5
117
100
AcDbEntity
  8
0
 62
     7
100
AcDbLine
 10
14.711764
 20
21.751644
 30
0.0
 11
14.397743
 21
21.751644
 31
0.0
  0
LINE
  5
116
100
AcDbEntity
  8
0
 62
     7
100
AcDbLine
 10
14.690059
 20
21.724428
 30
0.0
 11
14.419275
 21
21.724428
 31
0.0
  0
LINE
  5
115
100
AcDbEntity
  8
0
 62
     7
100
AcDbLine
 10
14.711764
 20
21.697211
 30
0.0
 11
14.397743
 21
21.697211
 31
0.0
  0
LINE
  5
114
100
AcDbEntity
  8
0
 62
     7
100
AcDbLine
 10
14.690059
 20
21.670684
 30
0.0
 11
14.419275
 21
21.670684
 31
0.0
  0
LINE
  5
113
100
AcDbEntity
  8
0
 62
     7
100
AcDbLine
 10
14.663015
 20
22.103733
 30
0.0
 11
14.446491
 21
22.103733
 31
0.0
  0
LINE
  5
112
100
AcDbEntity
  8
0
 62
     7
100
AcDbLine
 10
14.554667
 20
22.211909
 30
0.0
 11
14.446491
 21
22.103733
 31
0.0
  0
LINE
  5
111
100
AcDbEntity
  8
0
 62
     7
100
AcDbLine
 10
14.554667
 20
22.211909
 30
0.0
 11
14.663015
 21
22.103733
 31
0.0
  0
LINE
  5
110
100
AcDbEntity
  8
0
 62
     7
100
AcDbLine
 10
1.885156
 20
21.96834
 30
0.0
 11
1.885156
 21
21.697211
 31
0.0
  0
LINE
  5
10F
100
AcDbEntity
  8
0
 62
     7
100
AcDbLine
 10
1.570964
 20
21.96834
 30
0.0
 11
1.570964
 21
21.697211
 31
0.0
  0
LINE
  5
10E
100
AcDbEntity
  8
0
 62
     7
100
AcDbLine
 10
1.836408
 20
22.103733
 30
0.0
 11
1.836408
 21
21.995557
 31
0.0
  0
LINE
  5
10D
100
AcDbEntity
  8
0
 62
     7
100
AcDbLine
 10
1.836408
 20
21.670684
 30
0.0
 11
1.836408
 21
21.479137
 31
0.0
  0
LINE
  5
10C
100
AcDbEntity
  8
0
 62
     7
100
AcDbLine
 10
1.619884
 20
22.103733
 30
0.0
 11
1.619884
 21
21.995557
 31
0.0
  0
LINE
  5
10B
100
AcDbEntity
  8
0
 62
     7
100
AcDbLine
 10
1.619884
 20
21.670684
 30
0.0
 11
1.619884
 21
21.479137
 31
0.0
  0
LINE
  5
10A
100
AcDbEntity
  8
0
 62
     7
100
AcDbLine
 10
2.161281
 20
21.210075
 30
0.0
 11
2.161281
 21
20.411502
 31
0.0
  0
SPLINE
  5
109
100
AcDbEntity
  8
0
 62
     7
100
AcDbSpline
210
0.0
220
0.0
230
1.0
 70
     8
 71
     3
 72
     8
 73
     4
 74
     0
 42
0.00000001
 43
0.00000001
 40
0.0
 40
0.0
 40
0.0
 40
0.0
 40
1.0
 40
1.0
 40
1.0
 40
1.0
 10
2.1071926540798609
 20
20.357413736979165
 30
0.0
 10
2.1369927300347222
 20
20.357413736979165
 30
0.0
 10
2.1612806532118052
 20
20.381529405381944
 30
0.0
 10
2.1612806532118052
 20
20.411501736111109
 30
0.0
  0
LINE
  5
108
100
AcDbEntity
  8
0
 62
     7
100
AcDbLine
 10
1.295011
 20
21.210075
 30
0.0
 11
1.295011
 21
20.411502
 31
0.0
  0
LINE
  5
107
100
AcDbEntity
  8
0
 62
     7
100
AcDbLine
 10
1.349099
 20
21.210075
 30
0.0
 11
1.349099
 21
20.357414
 31
0.0
  0
LINE
  5
106
100
AcDbEntity
  8
0
 62
     7
100
AcDbLine
 10
1.40336
 20
21.210075
 30
0.0
 11
1.40336
 21
20.357414
 31
0.0
  0
LINE
  5
105
100
AcDbEntity
  8
0
 62
     7
100
AcDbLine
 10
1.457448
 20
21.210075
 30
0.0
 11
1.457448
 21
20.357414
 31
0.0
  0
LINE
  5
104
100
AcDbEntity
  8
0
 62
     7
100
AcDbLine
 10
1.511536
 20
21.210075
 30
0.0
 11
1.511536
 21
20.357414
 31
0.0
  0
LINE
  5
103
100
AcDbEntity
  8
0
 62
     7
100
AcDbLine
 10
1.565796
 20
21.210075
 30
0.0
 11
1.565796
 21
20.357414
 31
0.0
  0
LINE
  5
102
100
AcDbEntity
  8
0
 62
     7
100
AcDbLine
 10
1.619884
 20
21.210075
 30
0.0
 11
1.619884
 21
20.357414
 31
0.0
  0
LINE
  5
101
100
AcDbEntity
  8
0
 62
     7
100
AcDbLine
 10
1.673972
 20
21.210075
 30
0.0
 11
1.673972
 21
20.357414
 31
0.0
  0
LINE
  5
100
100
AcDbEntity
  8
0
 62
     7
100
AcDbLine
 10
1.728232
 20
21.210075
 30
0.0
 11
1.728232
 21
20.357414
 31
0.0
  0
LINE
  5
FF
100
AcDbEntity
  8
0
 62
     7
100
AcDbLine
 10
1.78232
 20
21.210075
 30
0.0
 11
1.78232
 21
20.357414
 31
0.0
  0
LINE
  5
FE
100
AcDbEntity
  8
0
 62
     7
100
AcDbLine
 10
1.836408
 20
21.210075
 30
0.0
 11
1.836408
 21
20.357414
 31
0.0
  0
LINE
  5
FD
100
AcDbEntity
  8
0
 62
     7
100
AcDbLine
 10
1.890496
 20
21.210075
 30
0.0
 11
1.890496
 21
20.357414
 31
0.0
  0
LINE
  5
FC
100
AcDbEntity
  8
0
 62
     7
100
AcDbLine
 10
1.944756
 20
21.210075
 30
0.0
 11
1.944756
 21
20.357414
 31
0.0
  0
LINE
  5
FB
100
AcDbEntity
  8
0
 62
     7
100
AcDbLine
 10
1.998844
 20
21.210075
 30
0.0
 11
1.998844
 21
20.357414
 31
0.0
  0
LINE
  5
FA
100
AcDbEntity
  8
0
 62
     7
100
AcDbLine
 10
2.052932
 20
21.210075
 30
0.0
 11
2.052932
 21
20.357414
 31
0.0
  0
LINE
  5
F9
100
AcDbEntity
  8
0
 62
     7
100
AcDbLine
 10
2.107193
 20
21.210075
 30
0.0
 11
2.107193
 21
20.357414
 31
0.0
  0
LINE
  5
F8
100
AcDbEntity
  8
0
 62
     7
100
AcDbLine
 10
2.107193
 20
20.357414
 30
0.0
 11
1.349099
 21
20.357414
 31
0.0
  0
SPLINE
  5
F7
100
AcDbEntity
  8
0
 62
     7
100
AcDbSpline
210
0.0
220
0.0
230
1.0
 70
     8
 71
     3
 72
     8
 73
     4
 74
     0
 42
0.00000001
 43
0.00000001
 40
0.0
 40
0.0
 40
0.0
 40
0.0
 40
1.0
 40
1.0
 40
1.0
 40
1.0
 10
1.2950113932291665
 20
20.411501736111109
 30
0.0
 10
1.2950113932291665
 20
20.381529405381944
 30
0.0
 10
1.3191270616319444
 20
20.357413736979165
 30
0.0
 10
1.349099392361111
 20
20.357413736979165
 30
0.0
  0
LINE
  5
F6
100
AcDbEntity
  8
0
 62
     7
100
AcDbLine
 10
2.161281
 20
21.210075
 30
0.0
 11
1.295011
 21
21.210075
 31
0.0
  0
LINE
  5
F5
100
AcDbEntity
  8
0
 62
     7
100
AcDbLine
 10
1.863452
 20
21.995557
 30
0.0
 11
1.592668
 21
21.995557
 31
0.0
  0
LINE
  5
F4
100
AcDbEntity
  8
0
 62
     7
100
AcDbLine
 10
1.885156
 20
21.96834
 30
0.0
 11
1.570964
 21
21.96834
 31
0.0
  0
LINE
  5
F3
100
AcDbEntity
  8
0
 62
     7
100
AcDbLine
 10
1.863452
 20
21.941124
 30
0.0
 11
1.592668
 21
21.941124
 31
0.0
  0
LINE
  5
F2
100
AcDbEntity
  8
0
 62
     7
100
AcDbLine
 10
1.885156
 20
21.913908
 30
0.0
 11
1.570964
 21
21.913908
 31
0.0
  0
LINE
  5
F1
100
AcDbEntity
  8
0
 62
     7
100
AcDbLine
 10
1.863452
 20
21.887036
 30
0.0
 11
1.592668
 21
21.887036
 31
0.0
  0
LINE
  5
F0
100
AcDbEntity
  8
0
 62
     7
100
AcDbLine
 10
1.885156
 20
21.85982
 30
0.0
 11
1.570964
 21
21.85982
 31
0.0
  0
LINE
  5
EF
100
AcDbEntity
  8
0
 62
     7
100
AcDbLine
 10
1.863452
 20
21.832948
 30
0.0
 11
1.592668
 21
21.832948
 31
0.0
  0
LINE
  5
EE
100
AcDbEntity
  8
0
 62
     7
100
AcDbLine
 10
1.885156
 20
21.805732
 30
0.0
 11
1.570964
 21
21.805732
 31
0.0
  0
LINE
  5
ED
100
AcDbEntity
  8
0
 62
     7
100
AcDbLine
 10
1.863452
 20
21.77886
 30
0.0
 11
1.592668
 21
21.77886
 31
0.0
  0
LINE
  5
EC
100
AcDbEntity
  8
0
 62
     7
100
AcDbLine
 10
1.885156
 20
21.751644
 30
0.0
 11
1.570964
 21
21.751644
 31
0.0
  0
LINE
  5
EB
100
AcDbEntity
  8
0
 62
     7
100
AcDbLine
 10
1.863452
 20
21.724428
 30
0.0
 11
1.592668
 21
21.724428
 31
0.0
  0
LINE
  5
EA
100
AcDbEntity
  8
0
 62
     7
100
AcDbLine
 10
1.885156
 20
21.697211
 30
0.0
 11
1.570964
 21
21.697211
 31
0.0
  0
LINE
  5
E9
100
AcDbEntity
  8
0
 62
     7
100
AcDbLine
 10
1.863452
 20
21.670684
 30
0.0
 11
1.592668
 21
21.670684
 31
0.0
  0
LINE
  5
E8
100
AcDbEntity
  8
0
 62
     7
100
AcDbLine
 10
1.836408
 20
22.103733
 30
0.0
 11
1.619884
 21
22.103733
 31
0.0
  0
LINE
  5
E7
100
AcDbEntity
  8
0
 62
     7
100
AcDbLine
 10
1.728232
 20
22.211909
 30
0.0
 11
1.619884
 21
22.103733
 31
0.0
  0
LINE
  5
E6
100
AcDbEntity
  8
0
 62
     7
100
AcDbLine
 10
1.728232
 20
22.211909
 30
0.0
 11
1.836408
 21
22.103733
 31
0.0
  0
LINE
  5
E5
100
AcDbEntity
  8
0
 62
     7
100
AcDbLine
 10
13.734907
 20
42.811857
 30
0.0
 11
2.548165
 21
42.811857
 31
0.0
  0
LINE
  5
E4
100
AcDbEntity
  8
0
 62
     7
100
AcDbLine
 10
13.217626
 20
42.007772
 30
0.0
 11
11.864048
 21
42.007772
 31
0.0
  0
LINE
  5
E3
100
AcDbEntity
  8
0
 62
     7
100
AcDbLine
 10
13.217626
 20
40.85711
 30
0.0
 11
11.864048
 21
40.85711
 31
0.0
  0
SPLINE
  5
E2
100
AcDbEntity
  8
0
 62
     7
100
AcDbSpline
210
0.0
220
0.0
230
1.0
 70
     8
 71
     3
 72
     8
 73
     4
 74
     0
 42
0.00000001
 43
0.00000001
 40
0.0
 40
0.0
 40
0.0
 40
0.0
 40
1.0
 40
1.0
 40
1.0
 40
1.0
 10
13.840498860677082
 20
42.706437174479163
 30
0.0
 10
13.840498860677082
 20
42.764659288194437
 30
0.0
 10
13.793128797743055
 20
42.81185709635416
 30
0.0
 10
13.734906684027777
 20
42.81185709635416
 30
0.0
  0
LINE
  5
E1
100
AcDbEntity
  8
0
 62
     7
100
AcDbLine
 10
13.734907
 20
39.879909
 30
0.0
 11
2.548165
 21
39.879909
 31
0.0
  0
SPLINE
  5
E0
100
AcDbEntity
  8
0
 62
     7
100
AcDbSpline
210
0.0
220
0.0
230
1.0
 70
     8
 71
     3
 72
     8
 73
     4
 74
     0
 42
0.00000001
 43
0.00000001
 40
0.0
 40
0.0
 40
0.0
 40
0.0
 40
1.0
 40
1.0
 40
1.0
 40
1.0
 10
13.734906684027777
 20
39.879908582899304
 30
0.0
 10
13.793128797743055
 20
39.879908582899304
 30
0.0
 10
13.840498860677082
 20
39.927106391059027
 30
0.0
 10
13.840498860677082
 20
39.985500759548607
 30
0.0
  0
CIRCLE
  5
DF
100
AcDbEntity
  8
0
 62
     7
100
AcDbCircle
 10
13.363956
 20
42.386732
 30
0.0
 40
0.314107
  0
CIRCLE
  5
DE
100
AcDbEntity
  8
0
 62
     7
100
AcDbCircle
 10
2.919029
 20
40.234409
 30
0.0
 40
0.31402
  0
LINE
  5
DD
100
AcDbEntity
  8
0
 62
     7
100
AcDbLine
 10
2.442573
 20
39.985501
 30
0.0
 11
2.442573
 21
42.706437
 31
0.0
  0
SPLINE
  5
DC
100
AcDbEntity
  8
0
 62
     7
100
AcDbSpline
210
0.0
220
0.0
230
1.0
 70
     8
 71
     3
 72
     8
 73
     4
 74
     0
 42
0.00000001
 43
0.00000001
 40
0.0
 40
0.0
 40
0.0
 40
0.0
 40
1.0
 40
1.0
 40
1.0
 40
1.0
 10
2.5481648763020832
 20
42.81185709635416
 30
0.0
 10
2.4897705078124996
 20
42.81185709635416
 30
0.0
 10
2.4425726996527777
 20
42.764659288194437
 30
0.0
 10
2.4425726996527777
 20
42.706437174479163
 30
0.0
  0
SPLINE
  5
DB
100
AcDbEntity
  8
0
 62
     7
100
AcDbSpline
210
0.0
220
0.0
230
1.0
 70
     8
 71
     3
 72
     8
 73
     4
 74
     0
 42
0.00000001
 43
0.00000001
 40
0.0
 40
0.0
 40
0.0
 40
0.0
 40
1.0
 40
1.0
 40
1.0
 40
1.0
 10
2.4425726996527777
 20
39.985500759548607
 30
0.0
 10
2.4425726996527777
 20
39.927106391059027
 30
0.0
 10
2.4897705078124996
 20
39.879908582899304
 30
0.0
 10
2.5481648763020832
 20
39.879908582899304
 30
0.0
  0
LINE
  5
DA
100
AcDbEntity
  8
0
 62
     7
100
AcDbLine
 10
13.840499
 20
39.985501
 30
0.0
 11
13.840499
 21
42.706437
 31
0.0
  0
LINE
  5
D9
100
AcDbEntity
  8
0
 62
     7
100
AcDbLine
 10
11.864048
 20
40.85711
 30
0.0
 11
11.864048
 21
42.007772
 31
0.0
  0
LINE
  5
D8
100
AcDbEntity
  8
0
 62
     7
100
AcDbLine
 10
13.217626
 20
40.85711
 30
0.0
 11
13.217626
 21
42.007772
 31
0.0
  0
LINE
  5
D7
100
AcDbEntity
  8
0
 62
     7
100
AcDbLine
 10
13.848078
 20
37.647487
 30
0.0
 11
13.848078
 21
37.479538
 31
0.0
  0
LINE
  5
D6
100
AcDbEntity
  8
0
 62
     7
100
AcDbLine
 10
2.442228
 20
37.647487
 30
0.0
 11
2.442228
 21
37.479538
 31
0.0
  0
LINE
  5
D5
100
AcDbEntity
  8
0
 62
     7
100
AcDbLine
 10
2.742985
 20
40.166885
 30
0.0
 11
2.851333
 21
40.166885
 31
0.0
  0
LINE
  5
D4
100
AcDbEntity
  8
0
 62
     7
100
AcDbLine
 10
2.986726
 20
40.166885
 30
0.0
 11
3.095074
 21
40.166885
 31
0.0
  0
LINE
  5
D3
100
AcDbEntity
  8
0
 62
     7
100
AcDbLine
 10
2.742985
 20
40.302105
 30
0.0
 11
2.851333
 21
40.302105
 31
0.0
  0
LINE
  5
D2
100
AcDbEntity
  8
0
 62
     7
100
AcDbLine
 10
2.986726
 20
40.302105
 30
0.0
 11
3.095074
 21
40.302105
 31
0.0
  0
LINE
  5
D1
100
AcDbEntity
  8
0
 62
     7
100
AcDbLine
 10
2.851333
 20
40.058537
 30
0.0
 11
2.986726
 21
40.058537
 31
0.0
  0
LINE
  5
D0
100
AcDbEntity
  8
0
 62
     7
100
AcDbLine
 10
2.851333
 20
40.410453
 30
0.0
 11
2.986726
 21
40.410453
 31
0.0
  0
LINE
  5
CF
100
AcDbEntity
  8
0
 62
     7
100
AcDbLine
 10
2.986726
 20
40.410453
 30
0.0
 11
2.986726
 21
40.302105
 31
0.0
  0
LINE
  5
CE
100
AcDbEntity
  8
0
 62
     7
100
AcDbLine
 10
2.986726
 20
40.166885
 30
0.0
 11
2.986726
 21
40.058537
 31
0.0
  0
LINE
  5
CD
100
AcDbEntity
  8
0
 62
     7
100
AcDbLine
 10
2.851333
 20
40.410453
 30
0.0
 11
2.851333
 21
40.302105
 31
0.0
  0
LINE
  5
CC
100
AcDbEntity
  8
0
 62
     7
100
AcDbLine
 10
2.851333
 20
40.166885
 30
0.0
 11
2.851333
 21
40.058537
 31
0.0
  0
LINE
  5
CB
100
AcDbEntity
  8
0
 62
     7
100
AcDbLine
 10
3.095074
 20
40.302105
 30
0.0
 11
3.095074
 21
40.166885
 31
0.0
  0
LINE
  5
CA
100
AcDbEntity
  8
0
 62
     7
100
AcDbLine
 10
2.742985
 20
40.302105
 30
0.0
 11
2.742985
 21
40.166885
 31
0.0
  0
CIRCLE
  5
C9
100
AcDbEntity
  8
0
 62
     7
100
AcDbCircle
 10
2.919029
 20
40.234409
 30
0.0
 40
0.276124
  0
LINE
  5
C8
100
AcDbEntity
  8
0
 62
     7
100
AcDbLine
 10
2.742985
 20
42.319208
 30
0.0
 11
2.851333
 21
42.319208
 31
0.0
  0
LINE
  5
C7
100
AcDbEntity
  8
0
 62
     7
100
AcDbLine
 10
2.986726
 20
42.319208
 30
0.0
 11
3.095074
 21
42.319208
 31
0.0
  0
LINE
  5
C6
100
AcDbEntity
  8
0
 62
     7
100
AcDbLine
 10
2.742985
 20
42.454428
 30
0.0
 11
2.851333
 21
42.454428
 31
0.0
  0
LINE
  5
C5
100
AcDbEntity
  8
0
 62
     7
100
AcDbLine
 10
2.986726
 20
42.454428
 30
0.0
 11
3.095074
 21
42.454428
 31
0.0
  0
LINE
  5
C4
100
AcDbEntity
  8
0
 62
     7
100
AcDbLine
 10
2.851333
 20
42.21086
 30
0.0
 11
2.986726
 21
42.21086
 31
0.0
  0
LINE
  5
C3
100
AcDbEntity
  8
0
 62
     7
100
AcDbLine
 10
2.851333
 20
42.562777
 30
0.0
 11
2.986726
 21
42.562777
 31
0.0
  0
LINE
  5
C2
100
AcDbEntity
  8
0
 62
     7
100
AcDbLine
 10
2.986726
 20
42.562777
 30
0.0
 11
2.986726
 21
42.454428
 31
0.0
  0
LINE
  5
C1
100
AcDbEntity
  8
0
 62
     7
100
AcDbLine
 10
2.986726
 20
42.319208
 30
0.0
 11
2.986726
 21
42.21086
 31
0.0
  0
LINE
  5
C0
100
AcDbEntity
  8
0
 62
     7
100
AcDbLine
 10
2.851333
 20
42.562777
 30
0.0
 11
2.851333
 21
42.454428
 31
0.0
  0
LINE
  5
BF
100
AcDbEntity
  8
0
 62
     7
100
AcDbLine
 10
2.851333
 20
42.319208
 30
0.0
 11
2.851333
 21
42.21086
 31
0.0
  0
LINE
  5
BE
100
AcDbEntity
  8
0
 62
     7
100
AcDbLine
 10
3.095074
 20
42.454428
 30
0.0
 11
3.095074
 21
42.319208
 31
0.0
  0
LINE
  5
BD
100
AcDbEntity
  8
0
 62
     7
100
AcDbLine
 10
2.742985
 20
42.454428
 30
0.0
 11
2.742985
 21
42.319208
 31
0.0
  0
CIRCLE
  5
BC
100
AcDbEntity
  8
0
 62
     7
100
AcDbCircle
 10
2.919029
 20
42.386732
 30
0.0
 40
0.276124
  0
LINE
  5
BB
100
AcDbEntity
  8
0
 62
     7
100
AcDbLine
 10
13.187998
 20
42.319208
 30
0.0
 11
13.296346
 21
42.319208
 31
0.0
  0
LINE
  5
BA
100
AcDbEntity
  8
0
 62
     7
100
AcDbLine
 10
13.431566
 20
42.319208
 30
0.0
 11
13.539742
 21
42.319208
 31
0.0
  0
LINE
  5
B9
100
AcDbEntity
  8
0
 62
     7
100
AcDbLine
 10
13.187998
 20
42.454428
 30
0.0
 11
13.296346
 21
42.454428
 31
0.0
  0
LINE
  5
B8
100
AcDbEntity
  8
0
 62
     7
100
AcDbLine
 10
13.431566
 20
42.454428
 30
0.0
 11
13.539742
 21
42.454428
 31
0.0
  0
LINE
  5
B7
100
AcDbEntity
  8
0
 62
     7
100
AcDbLine
 10
13.296346
 20
42.21086
 30
0.0
 11
13.431566
 21
42.21086
 31
0.0
  0
LINE
  5
B6
100
AcDbEntity
  8
0
 62
     7
100
AcDbLine
 10
13.296346
 20
42.562777
 30
0.0
 11
13.431566
 21
42.562777
 31
0.0
  0
LINE
  5
B5
100
AcDbEntity
  8
0
 62
     7
100
AcDbLine
 10
13.431566
 20
42.562777
 30
0.0
 11
13.431566
 21
42.454428
 31
0.0
  0
LINE
  5
B4
100
AcDbEntity
  8
0
 62
     7
100
AcDbLine
 10
13.431566
 20
42.319208
 30
0.0
 11
13.431566
 21
42.21086
 31
0.0
  0
LINE
  5
B3
100
AcDbEntity
  8
0
 62
     7
100
AcDbLine
 10
13.296346
 20
42.562777
 30
0.0
 11
13.296346
 21
42.454428
 31
0.0
  0
LINE
  5
B2
100
AcDbEntity
  8
0
 62
     7
100
AcDbLine
 10
13.296346
 20
42.319208
 30
0.0
 11
13.296346
 21
42.21086
 31
0.0
  0
LINE
  5
B1
100
AcDbEntity
  8
0
 62
     7
100
AcDbLine
 10
13.539742
 20
42.454428
 30
0.0
 11
13.539742
 21
42.319208
 31
0.0
  0
LINE
  5
B0
100
AcDbEntity
  8
0
 62
     7
100
AcDbLine
 10
13.187998
 20
42.454428
 30
0.0
 11
13.187998
 21
42.319208
 31
0.0
  0
CIRCLE
  5
AF
100
AcDbEntity
  8
0
 62
     7
100
AcDbCircle
 10
13.363956
 20
42.386732
 30
0.0
 40
0.276038
  0
LINE
  5
AE
100
AcDbEntity
  8
0
 62
     7
100
AcDbLine
 10
13.187998
 20
40.166885
 30
0.0
 11
13.296346
 21
40.166885
 31
0.0
  0
LINE
  5
AD
100
AcDbEntity
  8
0
 62
     7
100
AcDbLine
 10
13.431566
 20
40.166885
 30
0.0
 11
13.539742
 21
40.166885
 31
0.0
  0
LINE
  5
AC
100
AcDbEntity
  8
0
 62
     7
100
AcDbLine
 10
13.187998
 20
40.302105
 30
0.0
 11
13.296346
 21
40.302105
 31
0.0
  0
LINE
  5
AB
100
AcDbEntity
  8
0
 62
     7
100
AcDbLine
 10
13.431566
 20
40.302105
 30
0.0
 11
13.539742
 21
40.302105
 31
0.0
  0
LINE
  5
AA
100
AcDbEntity
  8
0
 62
     7
100
AcDbLine
 10
13.296346
 20
40.058537
 30
0.0
 11
13.431566
 21
40.058537
 31
0.0
  0
LINE
  5
A9
100
AcDbEntity
  8
0
 62
     7
100
AcDbLine
 10
13.296346
 20
40.410453
 30
0.0
 11
13.431566
 21
40.410453
 31
0.0
  0
LINE
  5
A8
100
AcDbEntity
  8
0
 62
     7
100
AcDbLine
 10
13.431566
 20
40.410453
 30
0.0
 11
13.431566
 21
40.302105
 31
0.0
  0
LINE
  5
A7
100
AcDbEntity
  8
0
 62
     7
100
AcDbLine
 10
13.431566
 20
40.166885
 30
0.0
 11
13.431566
 21
40.058537
 31
0.0
  0
LINE
  5
A6
100
AcDbEntity
  8
0
 62
     7
100
AcDbLine
 10
13.296346
 20
40.410453
 30
0.0
 11
13.296346
 21
40.302105
 31
0.0
  0
LINE
  5
A5
100
AcDbEntity
  8
0
 62
     7
100
AcDbLine
 10
13.296346
 20
40.166885
 30
0.0
 11
13.296346
 21
40.058537
 31
0.0
  0
LINE
  5
A4
100
AcDbEntity
  8
0
 62
     7
100
AcDbLine
 10
13.539742
 20
40.302105
 30
0.0
 11
13.539742
 21
40.166885
 31
0.0
  0
LINE
  5
A3
100
AcDbEntity
  8
0
 62
     7
100
AcDbLine
 10
13.187998
 20
40.302105
 30
0.0
 11
13.187998
 21
40.166885
 31
0.0
  0
CIRCLE
  5
A2
100
AcDbEntity
  8
0
 62
     7
100
AcDbCircle
 10
13.363956
 20
40.234409
 30
0.0
 40
0.276038
  0
CIRCLE
  5
A1
100
AcDbEntity
  8
0
 62
     7
100
AcDbCircle
 10
13.363956
 20
40.234409
 30
0.0
 40
0.314107
  0
SPLINE
  5
A0
100
AcDbEntity
  8
0
 62
     7
100
AcDbSpline
210
0.0
220
0.0
230
1.0
 70
     8
 71
     3
 72
     8
 73
     4
 74
     0
 42
0.00000001
 43
0.00000001
 40
0.0
 40
0.0
 40
0.0
 40
0.0
 40
1.0
 40
1.0
 40
1.0
 40
1.0
 10
12.745475260416665
 20
21.235913085937497
 30
0.0
 10
12.786471896701388
 20
21.217654079861109
 30
0.0
 10
12.833152940538193
 20
21.217654079861109
 30
0.0
 10
12.874149576822916
 20
21.235913085937497
 30
0.0
  0
SPLINE
  5
9F
100
AcDbEntity
  8
0
 62
     7
100
AcDbSpline
210
0.0
220
0.0
230
1.0
 70
     8
 71
     3
 72
     8
 73
     4
 74
     0
 42
0.00000001
 43
0.00000001
 40
0.0
 40
0.0
 40
0.0
 40
0.0
 40
1.0
 40
1.0
 40
1.0
 40
1.0
 10
11.662509494357638
 20
21.235913085937497
 30
0.0
 10
11.70350613064236
 20
21.217654079861109
 30
0.0
 10
11.750187174479166
 20
21.217654079861109
 30
0.0
 10
11.791183810763888
 20
21.235913085937497
 30
0.0
  0
LINE
  5
9E
100
AcDbEntity
  8
0
 62
     7
100
AcDbLine
 10
4.874638
 20
21.130149
 30
0.0
 11
3.336747
 21
21.130149
 31
0.0
  0
LINE
  5
9D
100
AcDbEntity
  8
0
 62
     7
100
AcDbLine
 10
3.336747
 20
21.130149
 30
0.0
 11
3.336747
 21
21.235913
 31
0.0
  0
LINE
  5
9C
100
AcDbEntity
  8
0
 62
     7
100
AcDbLine
 10
4.874638
 20
21.130149
 30
0.0
 11
4.874638
 21
21.235913
 31
0.0
  0
LINE
  5
9B
100
AcDbEntity
  8
0
 62
     7
100
AcDbLine
 10
6.956509
 20
21.219377
 30
0.0
 11
5.261867
 21
21.219377
 31
0.0
  0
LINE
  5
9A
100
AcDbEntity
  8
0
 62
     7
100
AcDbLine
 10
13.694255
 20
16.82688
 30
0.0
 11
14.985649
 21
16.82688
 31
0.0
  0
LINE
  5
99
100
AcDbEntity
  8
0
 62
     7
100
AcDbLine
 10
1.297251
 20
16.82688
 30
0.0
 11
2.588645
 21
16.82688
 31
0.0
  0
LINE
  5
98
100
AcDbEntity
  8
0
 62
     7
100
AcDbLine
 10
2.569697
 20
19.758656
 30
0.0
 11
6.297807
 21
19.758656
 31
0.0
  0
LINE
  5
97
100
AcDbEntity
  8
0
 62
     7
100
AcDbLine
 10
9.985265
 20
19.758656
 30
0.0
 11
13.71303
 21
19.758656
 31
0.0
  0
LINE
  5
96
100
AcDbEntity
  8
0
 62
     7
100
AcDbLine
 10
1.121379
 20
16.82688
 30
0.0
 11
15.161521
 21
16.82688
 31
0.0
  0
SPLINE
  5
95
100
AcDbEntity
  8
0
 62
     7
100
AcDbSpline
210
0.0
220
0.0
230
1.0
 70
     8
 71
     3
 72
     8
 73
     4
 74
     0
 42
0.00000001
 43
0.00000001
 40
0.0
 40
0.0
 40
0.0
 40
0.0
 40
1.0
 40
1.0
 40
1.0
 40
1.0
 10
1.015786404079861
 20
16.932299804687499
 30
0.0
 10
1.015786404079861
 20
16.87373318142361
 30
0.0
 10
1.0631564670138889
 20
16.826879882812499
 30
0.0
 10
1.1213785807291665
 20
16.826879882812499
 30
0.0
  0
LINE
  5
94
100
AcDbEntity
  8
0
 62
     7
100
AcDbLine
 10
1.121379
 20
19.758656
 30
0.0
 11
15.161521
 21
19.758656
 31
0.0
  0
SPLINE
  5
93
100
AcDbEntity
  8
0
 62
     7
100
AcDbSpline
210
0.0
220
0.0
230
1.0
 70
     8
 71
     3
 72
     8
 73
     4
 74
     0
 42
0.00000001
 43
0.00000001
 40
0.0
 40
0.0
 40
0.0
 40
0.0
 40
1.0
 40
1.0
 40
1.0
 40
1.0
 10
1.1213785807291665
 20
19.758656141493052
 30
0.0
 10
1.0631564670138889
 20
19.758656141493052
 30
0.0
 10
1.015786404079861
 20
19.711113823784721
 30
0.0
 10
1.015786404079861
 20
19.652891710069444
 30
0.0
  0
LINE
  5
92
100
AcDbEntity
  8
0
 62
     7
100
AcDbLine
 10
1.015786
 20
16.9323
 30
0.0
 11
1.015786
 21
19.652892
 31
0.0
  0
LINE
  5
91
100
AcDbEntity
  8
0
 62
     7
100
AcDbLine
 10
15.267113
 20
16.9323
 30
0.0
 11
15.267113
 21
19.652892
 31
0.0
  0
SPLINE
  5
90
100
AcDbEntity
  8
0
 62
     7
100
AcDbSpline
210
0.0
220
0.0
230
1.0
 70
     8
 71
     3
 72
     8
 73
     4
 74
     0
 42
0.00000001
 43
0.00000001
 40
0.0
 40
0.0
 40
0.0
 40
0.0
 40
1.0
 40
1.0
 40
1.0
 40
1.0
 10
15.267112901475693
 20
19.652891710069444
 30
0.0
 10
15.267112901475693
 20
19.711113823784721
 30
0.0
 10
15.21991509331597
 20
19.758656141493052
 30
0.0
 10
15.161520724826387
 20
19.758656141493052
 30
0.0
  0
SPLINE
  5
8F
100
AcDbEntity
  8
0
 62
     7
100
AcDbSpline
210
0.0
220
0.0
230
1.0
 70
     8
 71
     3
 72
     8
 73
     4
 74
     0
 42
0.00000001
 43
0.00000001
 40
0.0
 40
0.0
 40
0.0
 40
0.0
 40
1.0
 40
1.0
 40
1.0
 40
1.0
 10
15.161520724826387
 20
16.826879882812499
 30
0.0
 10
15.21991509331597
 20
16.826879882812499
 30
0.0
 10
15.267112901475693
 20
16.87373318142361
 30
0.0
 10
15.267112901475693
 20
16.932299804687499
 30
0.0
  0
CIRCLE
  5
8E
100
AcDbEntity
  8
0
 62
     7
100
AcDbCircle
 10
13.363956
 20
17.25166
 30
0.0
 40
0.314107
  0
CIRCLE
  5
8D
100
AcDbEntity
  8
0
 62
     7
100
AcDbCircle
 10
13.363956
 20
19.403811
 30
0.0
 40
0.314107
  0
LINE
  5
8C
100
AcDbEntity
  8
0
 62
     7
100
AcDbLine
 10
1.470367
 20
17.945502
 30
0.0
 11
2.080149
 21
18.545983
 31
0.0
  0
LINE
  5
8B
100
AcDbEntity
  8
0
 62
     7
100
AcDbLine
 10
1.375454
 20
18.04231
 30
0.0
 11
1.985236
 21
18.642445
 31
0.0
  0
CIRCLE
  5
8A
100
AcDbEntity
  8
0
 62
     7
100
AcDbCircle
 10
1.727802
 20
18.293802
 30
0.0
 40
0.433135
  0
LINE
  5
89
100
AcDbEntity
  8
0
 62
     7
100
AcDbLine
 10
14.297835
 20
17.945502
 30
0.0
 11
14.907445
 21
18.545983
 31
0.0
  0
LINE
  5
88
100
AcDbEntity
  8
0
 62
     7
100
AcDbLine
 10
14.202751
 20
18.04231
 30
0.0
 11
14.812533
 21
18.642445
 31
0.0
  0
CIRCLE
  5
87
100
AcDbEntity
  8
0
 62
     7
100
AcDbCircle
 10
14.555098
 20
18.293802
 30
0.0
 40
0.433135
  0
LINE
  5
86
100
AcDbEntity
  8
0
 62
     7
100
AcDbLine
 10
2.742985
 20
19.336287
 30
0.0
 11
2.851333
 21
19.336287
 31
0.0
  0
LINE
  5
85
100
AcDbEntity
  8
0
 62
     7
100
AcDbLine
 10
2.986726
 20
19.336287
 30
0.0
 11
3.095074
 21
19.336287
 31
0.0
  0
LINE
  5
84
100
AcDbEntity
  8
0
 62
     7
100
AcDbLine
 10
2.742985
 20
19.47168
 30
0.0
 11
2.851333
 21
19.47168
 31
0.0
  0
LINE
  5
83
100
AcDbEntity
  8
0
 62
     7
100
AcDbLine
 10
2.986726
 20
19.47168
 30
0.0
 11
3.095074
 21
19.47168
 31
0.0
  0
LINE
  5
82
100
AcDbEntity
  8
0
 62
     7
100
AcDbLine
 10
2.851333
 20
19.228111
 30
0.0
 11
2.986726
 21
19.228111
 31
0.0
  0
LINE
  5
81
100
AcDbEntity
  8
0
 62
     7
100
AcDbLine
 10
2.851333
 20
19.5802
 30
0.0
 11
2.986726
 21
19.5802
 31
0.0
  0
LINE
  5
80
100
AcDbEntity
  8
0
 62
     7
100
AcDbLine
 10
2.986726
 20
19.5802
 30
0.0
 11
2.986726
 21
19.47168
 31
0.0
  0
LINE
  5
7F
100
AcDbEntity
  8
0
 62
     7
100
AcDbLine
 10
2.986726
 20
19.336287
 30
0.0
 11
2.986726
 21
19.228111
 31
0.0
  0
LINE
  5
7E
100
AcDbEntity
  8
0
 62
     7
100
AcDbLine
 10
2.851333
 20
19.5802
 30
0.0
 11
2.851333
 21
19.47168
 31
0.0
  0
LINE
  5
7D
100
AcDbEntity
  8
0
 62
     7
100
AcDbLine
 10
2.851333
 20
19.336287
 30
0.0
 11
2.851333
 21
19.228111
 31
0.0
  0
LINE
  5
7C
100
AcDbEntity
  8
0
 62
     7
100
AcDbLine
 10
3.095074
 20
19.47168
 30
0.0
 11
3.095074
 21
19.336287
 31
0.0
  0
LINE
  5
7B
100
AcDbEntity
  8
0
 62
     7
100
AcDbLine
 10
2.742985
 20
19.47168
 30
0.0
 11
2.742985
 21
19.336287
 31
0.0
  0
CIRCLE
  5
7A
100
AcDbEntity
  8
0
 62
     7
100
AcDbCircle
 10
2.919029
 20
19.403811
 30
0.0
 40
0.276124
  0
LINE
  5
79
100
AcDbEntity
  8
0
 62
     7
100
AcDbLine
 10
2.742985
 20
17.183792
 30
0.0
 11
2.851333
 21
17.183792
 31
0.0
  0
LINE
  5
78
100
AcDbEntity
  8
0
 62
     7
100
AcDbLine
 10
2.986726
 20
17.183792
 30
0.0
 11
3.095074
 21
17.183792
 31
0.0
  0
LINE
  5
77
100
AcDbEntity
  8
0
 62
     7
100
AcDbLine
 10
2.742985
 20
17.319184
 30
0.0
 11
2.851333
 21
17.319184
 31
0.0
  0
LINE
  5
76
100
AcDbEntity
  8
0
 62
     7
100
AcDbLine
 10
2.986726
 20
17.319184
 30
0.0
 11
3.095074
 21
17.319184
 31
0.0
  0
LINE
  5
75
100
AcDbEntity
  8
0
 62
     7
100
AcDbLine
 10
2.851333
 20
17.075616
 30
0.0
 11
2.986726
 21
17.075616
 31
0.0
  0
LINE
  5
74
100
AcDbEntity
  8
0
 62
     7
100
AcDbLine
 10
2.851333
 20
17.427705
 30
0.0
 11
2.986726
 21
17.427705
 31
0.0
  0
LINE
  5
73
100
AcDbEntity
  8
0
 62
     7
100
AcDbLine
 10
2.986726
 20
17.427705
 30
0.0
 11
2.986726
 21
17.319184
 31
0.0
  0
LINE
  5
72
100
AcDbEntity
  8
0
 62
     7
100
AcDbLine
 10
2.986726
 20
17.183792
 30
0.0
 11
2.986726
 21
17.075616
 31
0.0
  0
LINE
  5
71
100
AcDbEntity
  8
0
 62
     7
100
AcDbLine
 10
2.851333
 20
17.427705
 30
0.0
 11
2.851333
 21
17.319184
 31
0.0
  0
LINE
  5
70
100
AcDbEntity
  8
0
 62
     7
100
AcDbLine
 10
2.851333
 20
17.183792
 30
0.0
 11
2.851333
 21
17.075616
 31
0.0
  0
LINE
  5
6F
100
AcDbEntity
  8
0
 62
     7
100
AcDbLine
 10
3.095074
 20
17.319184
 30
0.0
 11
3.095074
 21
17.183792
 31
0.0
  0
LINE
  5
6E
100
AcDbEntity
  8
0
 62
     7
100
AcDbLine
 10
2.742985
 20
17.319184
 30
0.0
 11
2.742985
 21
17.183792
 31
0.0
  0
CIRCLE
  5
6D
100
AcDbEntity
  8
0
 62
     7
100
AcDbCircle
 10
2.919029
 20
17.25166
 30
0.0
 40
0.276124
  0
LINE
  5
6C
100
AcDbEntity
  8
0
 62
     7
100
AcDbLine
 10
13.187998
 20
17.183792
 30
0.0
 11
13.296346
 21
17.183792
 31
0.0
  0
LINE
  5
6B
100
AcDbEntity
  8
0
 62
     7
100
AcDbLine
 10
13.431566
 20
17.183792
 30
0.0
 11
13.539742
 21
17.183792
 31
0.0
  0
LINE
  5
6A
100
AcDbEntity
  8
0
 62
     7
100
AcDbLine
 10
13.187998
 20
17.319184
 30
0.0
 11
13.296346
 21
17.319184
 31
0.0
  0
LINE
  5
69
100
AcDbEntity
  8
0
 62
     7
100
AcDbLine
 10
13.431566
 20
17.319184
 30
0.0
 11
13.539742
 21
17.319184
 31
0.0
  0
LINE
  5
68
100
AcDbEntity
  8
0
 62
     7
100
AcDbLine
 10
13.296346
 20
17.075616
 30
0.0
 11
13.431566
 21
17.075616
 31
0.0
  0
LINE
  5
67
100
AcDbEntity
  8
0
 62
     7
100
AcDbLine
 10
13.296346
 20
17.427705
 30
0.0
 11
13.431566
 21
17.427705
 31
0.0
  0
LINE
  5
66
100
AcDbEntity
  8
0
 62
     7
100
AcDbLine
 10
13.431566
 20
17.427705
 30
0.0
 11
13.431566
 21
17.319184
 31
0.0
  0
LINE
  5
65
100
AcDbEntity
  8
0
 62
     7
100
AcDbLine
 10
13.431566
 20
17.183792
 30
0.0
 11
13.431566
 21
17.075616
 31
0.0
  0
LINE
  5
64
100
AcDbEntity
  8
0
 62
     7
100
AcDbLine
 10
13.296346
 20
17.427705
 30
0.0
 11
13.296346
 21
17.319184
 31
0.0
  0
LINE
  5
63
100
AcDbEntity
  8
0
 62
     7
100
AcDbLine
 10
13.296346
 20
17.183792
 30
0.0
 11
13.296346
 21
17.075616
 31
0.0
  0
LINE
  5
62
100
AcDbEntity
  8
0
 62
     7
100
AcDbLine
 10
13.539742
 20
17.319184
 30
0.0
 11
13.539742
 21
17.183792
 31
0.0
  0
LINE
  5
61
100
AcDbEntity
  8
0
 62
     7
100
AcDbLine
 10
13.187998
 20
17.319184
 30
0.0
 11
13.187998
 21
17.183792
 31
0.0
  0
CIRCLE
  5
60
100
AcDbEntity
  8
0
 62
     7
100
AcDbCircle
 10
13.363956
 20
17.25166
 30
0.0
 40
0.276038
  0
LINE
  5
5F
100
AcDbEntity
  8
0
 62
     7
100
AcDbLine
 10
13.187998
 20
19.336287
 30
0.0
 11
13.296346
 21
19.336287
 31
0.0
  0
LINE
  5
5E
100
AcDbEntity
  8
0
 62
     7
100
AcDbLine
 10
13.431566
 20
19.336287
 30
0.0
 11
13.539742
 21
19.336287
 31
0.0
  0
LINE
  5
5D
100
AcDbEntity
  8
0
 62
     7
100
AcDbLine
 10
13.187998
 20
19.47168
 30
0.0
 11
13.296346
 21
19.47168
 31
0.0
  0
LINE
  5
5C
100
AcDbEntity
  8
0
 62
     7
100
AcDbLine
 10
13.431566
 20
19.47168
 30
0.0
 11
13.539742
 21
19.47168
 31
0.0
  0
LINE
  5
5B
100
AcDbEntity
  8
0
 62
     7
100
AcDbLine
 10
13.296346
 20
19.228111
 30
0.0
 11
13.431566
 21
19.228111
 31
0.0
  0
LINE
  5
5A
100
AcDbEntity
  8
0
 62
     7
100
AcDbLine
 10
13.296346
 20
19.5802
 30
0.0
 11
13.431566
 21
19.5802
 31
0.0
  0
LINE
  5
59
100
AcDbEntity
  8
0
 62
     7
100
AcDbLine
 10
13.431566
 20
19.5802
 30
0.0
 11
13.431566
 21
19.47168
 31
0.0
  0
LINE
  5
58
100
AcDbEntity
  8
0
 62
     7
100
AcDbLine
 10
13.431566
 20
19.336287
 30
0.0
 11
13.431566
 21
19.228111
 31
0.0
  0
LINE
  5
57
100
AcDbEntity
  8
0
 62
     7
100
AcDbLine
 10
13.296346
 20
19.5802
 30
0.0
 11
13.296346
 21
19.47168
 31
0.0
  0
LINE
  5
56
100
AcDbEntity
  8
0
 62
     7
100
AcDbLine
 10
13.296346
 20
19.336287
 30
0.0
 11
13.296346
 21
19.228111
 31
0.0
  0
LINE
  5
55
100
AcDbEntity
  8
0
 62
     7
100
AcDbLine
 10
13.539742
 20
19.47168
 30
0.0
 11
13.539742
 21
19.336287
 31
0.0
  0
LINE
  5
54
100
AcDbEntity
  8
0
 62
     7
100
AcDbLine
 10
13.187998
 20
19.47168
 30
0.0
 11
13.187998
 21
19.336287
 31
0.0
  0
CIRCLE
  5
53
100
AcDbEntity
  8
0
 62
     7
100
AcDbCircle
 10
13.363956
 20
19.403811
 30
0.0
 40
0.276038
  0
CIRCLE
  5
52
100
AcDbEntity
  8
0
 62
     7
100
AcDbCircle
 10
2.919029
 20
17.25166
 30
0.0
 40
0.31402
  0
LINE
  5
51
100
AcDbEntity
  8
0
 62
     7
100
AcDbLine
 10
5.200027
 20
17.630621
 30
0.0
 11
7.019382
 21
17.630621
 31
0.0
  0
LINE
  5
50
100
AcDbEntity
  8
0
 62
     7
100
AcDbLine
 10
5.200027
 20
19.136127
 30
0.0
 11
7.019382
 21
19.136127
 31
0.0
  0
LINE
  5
4F
100
AcDbEntity
  8
0
 62
     7
100
AcDbLine
 10
3.293856
 20
17.587557
 30
0.0
 11
4.918391
 21
17.587557
 31
0.0
  0
LINE
  5
4E
100
AcDbEntity
  8
0
 62
     7
100
AcDbLine
 10
3.293856
 20
18.697567
 30
0.0
 11
4.918391
 21
18.697567
 31
0.0
  0
CIRCLE
  5
4D
100
AcDbEntity
  8
0
 62
     7
100
AcDbCircle
 10
12.810243
 20
17.977197
 30
0.0
 40
0.167776
  0
LINE
  5
4C
100
AcDbEntity
  8
0
 62
     7
100
AcDbLine
 10
3.293856
 20
18.697567
 30
0.0
 11
3.293856
 21
17.587557
 31
0.0
  0
LINE
  5
4B
100
AcDbEntity
  8
0
 62
     7
100
AcDbLine
 10
4.918391
 20
18.697567
 30
0.0
 11
4.918391
 21
17.587557
 31
0.0
  0
LINE
  5
4A
100
AcDbEntity
  8
0
 62
     7
100
AcDbLine
 10
7.019382
 20
19.136127
 30
0.0
 11
7.019382
 21
17.630621
 31
0.0
  0
LINE
  5
49
100
AcDbEntity
  8
0
 62
     7
100
AcDbLine
 10
5.200027
 20
19.136127
 30
0.0
 11
5.200027
 21
17.630621
 31
0.0
  0
CIRCLE
  5
48
100
AcDbEntity
  8
0
 62
     7
100
AcDbCircle
 10
11.727191
 20
17.977197
 30
0.0
 40
0.167862
  0
LINE
  5
47
100
AcDbEntity
  8
0
 62
     7
100
AcDbLine
 10
3.337264
 20
17.630621
 30
0.0
 11
4.875155
 21
17.630621
 31
0.0
  0
LINE
  5
46
100
AcDbEntity
  8
0
 62
     7
100
AcDbLine
 10
3.380672
 20
17.674029
 30
0.0
 11
4.831574
 21
17.674029
 31
0.0
  0
LINE
  5
45
100
AcDbEntity
  8
0
 62
     7
100
AcDbLine
 10
3.337264
 20
18.654159
 30
0.0
 11
4.875155
 21
18.654159
 31
0.0
  0
LINE
  5
44
100
AcDbEntity
  8
0
 62
     7
100
AcDbLine
 10
3.380672
 20
18.61075
 30
0.0
 11
4.831574
 21
18.61075
 31
0.0
  0
LINE
  5
43
100
AcDbEntity
  8
0
 62
     7
100
AcDbLine
 10
3.337264
 20
18.654159
 30
0.0
 11
3.337264
 21
17.630621
 31
0.0
  0
LINE
  5
42
100
AcDbEntity
  8
0
 62
     7
100
AcDbLine
 10
3.380672
 20
18.61075
 30
0.0
 11
3.380672
 21
17.674029
 31
0.0
  0
LINE
  5
41
100
AcDbEntity
  8
0
 62
     7
100
AcDbLine
 10
4.875155
 20
18.654159
 30
0.0
 11
4.875155
 21
17.630621
 31
0.0
  0
LINE
  5
40
100
AcDbEntity
  8
0
 62
     7
100
AcDbLine
 10
4.831574
 20
18.61075
 30
0.0
 11
4.831574
 21
17.674029
 31
0.0
  0
LINE
  5
3F
100
AcDbEntity
  8
0
 62
     7
100
AcDbLine
 10
5.424647
 20
17.846973
 30
0.0
 11
6.79459
 21
17.846973
 31
0.0
  0
LINE
  5
3E
100
AcDbEntity
  8
0
 62
     7
100
AcDbLine
 10
5.424647
 20
18.118102
 30
0.0
 11
5.505779
 21
18.118102
 31
0.0
  0
LINE
  5
3D
100
AcDbEntity
  8
0
 62
     7
100
AcDbLine
 10
6.713285
 20
18.118102
 30
0.0
 11
6.79459
 21
18.118102
 31
0.0
  0
LINE
  5
3C
100
AcDbEntity
  8
0
 62
     7
100
AcDbLine
 10
5.424647
 20
18.388542
 30
0.0
 11
5.505779
 21
18.388542
 31
0.0
  0
LINE
  5
3B
100
AcDbEntity
  8
0
 62
     7
100
AcDbLine
 10
6.713285
 20
18.388542
 30
0.0
 11
6.79459
 21
18.388542
 31
0.0
  0
LINE
  5
3A
100
AcDbEntity
  8
0
 62
     7
100
AcDbLine
 10
5.343343
 20
18.659326
 30
0.0
 11
5.74952
 21
18.659326
 31
0.0
  0
LINE
  5
39
100
AcDbEntity
  8
0
 62
     7
100
AcDbLine
 10
6.469717
 20
18.659326
 30
0.0
 11
6.875722
 21
18.659326
 31
0.0
  0
LINE
  5
38
100
AcDbEntity
  8
0
 62
     7
100
AcDbLine
 10
5.343343
 20
18.930111
 30
0.0
 11
5.838748
 21
18.930111
 31
0.0
  0
LINE
  5
37
100
AcDbEntity
  8
0
 62
     7
100
AcDbLine
 10
6.380317
 20
18.930111
 30
0.0
 11
6.875722
 21
18.930111
 31
0.0
  0
LINE
  5
36
100
AcDbEntity
  8
0
 62
     7
100
AcDbLine
 10
5.262211
 20
19.051723
 30
0.0
 11
6.957026
 21
19.051723
 31
0.0
  0
LINE
  5
35
100
AcDbEntity
  8
0
 62
     7
100
AcDbLine
 10
5.838748
 20
19.008659
 30
0.0
 11
6.380317
 21
19.008659
 31
0.0
  0
LINE
  5
34
100
AcDbEntity
  8
0
 62
     7
100
AcDbLine
 10
6.380317
 20
18.930111
 30
0.0
 11
6.380317
 21
19.008659
 31
0.0
  0
LINE
  5
33
100
AcDbEntity
  8
0
 62
     7
100
AcDbLine
 10
5.838748
 20
18.930111
 30
0.0
 11
5.838748
 21
19.008659
 31
0.0
  0
LINE
  5
32
100
AcDbEntity
  8
0
 62
     7
100
AcDbLine
 10
6.957026
 20
17.630621
 30
0.0
 11
6.957026
 21
19.051723
 31
0.0
  0
LINE
  5
31
100
AcDbEntity
  8
0
 62
     7
100
AcDbLine
 10
6.79459
 20
17.846973
 30
0.0
 11
6.79459
 21
18.659326
 31
0.0
  0
LINE
  5
30
100
AcDbEntity
  8
0
 62
     7
100
AcDbLine
 10
6.713285
 20
18.118102
 30
0.0
 11
6.713285
 21
18.388542
 31
0.0
  0
LINE
  5
2F
100
AcDbEntity
  8
0
 62
     7
100
AcDbLine
 10
6.875722
 20
18.659326
 30
0.0
 11
6.875722
 21
18.930111
 31
0.0
  0
LINE
  5
2E
100
AcDbEntity
  8
0
 62
     7
100
AcDbLine
 10
6.469717
 20
18.659326
 30
0.0
 11
6.469717
 21
18.930111
 31
0.0
  0
LINE
  5
2D
100
AcDbEntity
  8
0
 62
     7
100
AcDbLine
 10
5.262211
 20
17.630621
 30
0.0
 11
5.262211
 21
19.051723
 31
0.0
  0
LINE
  5
2C
100
AcDbEntity
  8
0
 62
     7
100
AcDbLine
 10
5.424647
 20
17.846973
 30
0.0
 11
5.424647
 21
18.659326
 31
0.0
  0
LINE
  5
2B
100
AcDbEntity
  8
0
 62
     7
100
AcDbLine
 10
5.505779
 20
18.118102
 30
0.0
 11
5.505779
 21
18.388542
 31
0.0
  0
LINE
  5
2A
100
AcDbEntity
  8
0
 62
     7
100
AcDbLine
 10
5.343343
 20
18.659326
 30
0.0
 11
5.343343
 21
18.930111
 31
0.0
  0
LINE
  5
29
100
AcDbEntity
  8
0
 62
     7
100
AcDbLine
 10
5.74952
 20
18.659326
 30
0.0
 11
5.74952
 21
18.930111
 31
0.0
  0
ENDSEC
  0
SECTION
  2
OBJECTS
  0
DICTIONARY
  5
19
100
AcDbDictionary
280
     0
281
     1
  3
ACAD_GROUP
350
1A
  3
ACAD_MLINESTYLE
350
1B
  3
ACAD_LAYOUT
350
1E
  3
ACAD_PLOTSETTINGS
350
22
  3
ACAD_PLOTSTYLENAME
350
1F
  3
ACAD_WIPEOUT_VARS
350
23
  0
DICTIONARY
  5
1A
102
{ACAD_REACTORS
330
19
102
}
100
AcDbDictionary
280
     0
281
     1
  0
DICTIONARY
  5
1B
102
{ACAD_REACTORS
330
19
102
}
100
AcDbDictionary
280
     0
281
     1
  3
Standard
350
1C
  0
MLINESTYLE
  5
1C
102
{ACAD_REACTORS
330
1B
102
}
100
AcDbMlineStyle
  2
Standard
 70
     0
  3

 62
     0
 51
90.0
 52
90.0
 71
     2
 49
0.5
 62
   256
  6
ByLayer
 49
-0.5
 62
   256
  6
ByLayer
  0
ACDBDICTIONARYWDFLT
  5
1F
102
{ACAD_REACTORS
330
19
102
}
100
AcDbDictionary
281
     1
  3
Normal
350
1D
100
AcDbDictionaryWithDefault
340
1D
  0
ACDBPLACEHOLDER
  5
1D
102
{ACAD_REACTORS
330
1F
102
}
  0
LAYOUT
  5
20
102
{ACAD_REACTORS
330
1E
102
}
100
AcDbPlotSettings
  1

  2

  4

  6

 40
0.0
 41
0.0
 42
0.0
 43
0.0
 44
0.0
 45
0.0
 46
0.0
 47
0.0
 48
0.0
 49
0.0
140
0.0
141
0.0
142
1.0
143
1.0
 70
  1024
 72
     0
 73
     0
 74
     0
  7

 75
     0
147
1.0
148
0.0
149
0.0
100
AcDbLayout
  1
Model
 70
     0
 71
     0
 10
0.0
 20
0.0
 11
0.0
 21
0.0
 12
0.0
 22
0.0
 32
0.0
 14
0.0
 24
0.0
 34
0.0
 15
0.0
 25
0.0
 35
0.0
146
0.0
 13
0.0
 23
0.0
 33
0.0
 16
0.0
 26
0.0
 36
0.0
 17
0.0
 27
0.0
 37
0.0
 76
     0
330
A
331
0
345
0
346
0
  0
LAYOUT
  5
21
102
{ACAD_REACTORS
330
1E
102
}
100
AcDbPlotSettings
  1

  2

  4

  6

 40
0.0
 41
0.0
 42
0.0
 43
0.0
 44
0.0
 45
0.0
 46
0.0
 47
0.0
 48
0.0
 49
0.0
140
0.0
141
0.0
142
1.0
143
1.0
 70
     0
 72
     0
 73
     0
 74
     0
  7

 75
     0
147
1.0
148
0.0
149
0.0
100
AcDbLayout
  1
Layout1
 70
     0
 71
     0
 10
0.0
 20
0.0
 11
0.0
 21
0.0
 12
0.0
 22
0.0
 32
0.0
 14
0.0
 24
0.0
 34
0.0
 15
0.0
 25
0.0
 35
0.0
146
0.0
 13
0.0
 23
0.0
 33
0.0
 16
0.0
 26
0.0
 36
0.0
 17
0.0
 27
0.0
 37
0.0
 76
     0
330
B
331
0
345
0
346
0
  0
DICTIONARY
  5
1E
102
{ACAD_REACTORS
330
19
102
}
100
AcDbDictionary
280
     0
281
     1
  3
Layout1
350
21
  3
Model
350
20
  0
DICTIONARY
  5
22
102
{ACAD_REACTORS
330
19
102
}
100
AcDbDictionary
280
     0
281
     1
  0
WIPEOUTVARIABLES
  5
23
100
AcDbWipeoutVariables
 70
     1
  0
ENDSEC
  0
EOF
