  0
SECTION
  2
HEADER
  9
$ACADVER
  1
AC1015
  9
$ACADMAINTVER
 70
     6
  9
$DWGCODEPAGE
  3
ANSI_932
  9
$INSBASE
 10
0.0
 20
0.0
 30
0.0
  9
$EXTMIN
 10
3.982875
 20
4.802119
 30
1.000000E+20
  9
$EXTMAX
 10
74.510181
 20
58.111009
 30
-1.000000E+20
  9
$LIMMIN
 10
3.982875
 20
4.802119
  9
$LIMMAX
 10
74.510181
 20
58.111009
  9
$ORTHOMODE
 70
     0
  9
$REGENMODE
 70
     1
  9
$FILLMODE
 70
     1
  9
$QTEXTMODE
 70
     0
  9
$MIRRTEXT
 70
     1
  9
$LTSCALE
 40
1.0
  9
$ATTMODE
 70
     1
  9
$TEXTSIZE
 40
0.2
  9
$TRACEWID
 40
0.05
  9
$TEXTSTYLE
  7
Standard
  9
$CLAYER
  8
0
  9
$CELTYPE
  6
Continuous
  9
$CECOLOR
 62
   256
  9
$CELTSCALE
 40
1.0
  9
$DISPSILH
 70
     0
  9
$DIMSCALE
 40
1.0
  9
$DIMASZ
 40
0.18
  9
$DIMEXO
 40
0.0625
  9
$DIMDLI
 40
0.38
  9
$DIMRND
 40
0.0
  9
$DIMDLE
 40
0.0
  9
$DIMEXE
 40
0.18
  9
$DIMTP
 40
0.0
  9
$DIMTM
 40
0.0
  9
$DIMTXT
 40
0.18
  9
$DIMCEN
 40
0.09
  9
$DIMTSZ
 40
0.0
  9
$DIMTOL
 70
     0
  9
$DIMLIM
 70
     0
  9
$DIMTIH
 70
     1
  9
$DIMTOH
 70
     1
  9
$DIMSE1
 70
     0
  9
$DIMSE2
 70
     0
  9
$DIMTAD
 70
     0
  9
$DIMZIN
 70
     0
  9
$DIMBLK
  1

  9
$DIMASO
 70
     1
  9
$DIMSHO
 70
     1
  9
$DIMPOST
  1

  9
$DIMAPOST
  1

  9
$DIMALT
 70
     0
  9
$DIMALTD
 70
     2
  9
$DIMALTF
 40
25.4
  9
$DIMLFAC
 40
1.0
  9
$DIMTOFL
 70
     0
  9
$DIMTVP
 40
0.0
  9
$DIMTIX
 70
     0
  9
$DIMSOXD
 70
     0
  9
$DIMSAH
 70
     0
  9
$DIMBLK1
  1

  9
$DIMBLK2
  1

  9
$DIMSTYLE
  2
Standard
  9
$DIMCLRD
 70
     0
  9
$DIMCLRE
 70
     0
  9
$DIMCLRT
 70
     0
  9
$DIMTFAC
 40
1.0
  9
$DIMGAP
 40
0.09
  9
$DIMJUST
 70
     0
  9
$DIMSD1
 70
     0
  9
$DIMSD2
 70
     0
  9
$DIMTOLJ
 70
     1
  9
$DIMTZIN
 70
     0
  9
$DIMALTZ
 70
     0
  9
$DIMALTTZ
 70
     0
  9
$DIMUPT
 70
     0
  9
$DIMDEC
 70
     4
  9
$DIMTDEC
 70
     4
  9
$DIMALTU
 70
     2
  9
$DIMALTTD
 70
     2
  9
$DIMTXSTY
  7
Standard
  9
$DIMAUNIT
 70
     0
  9
$DIMADEC
 70
     0
  9
$DIMALTRND
 40
0.0
  9
$DIMAZIN
 70
     0
  9
$DIMDSEP
 70
     0
  9
$DIMATFIT
 70
     3
  9
$DIMFRAC
 70
     0
  9
$DIMLDRBLK
  1

  9
$DIMLUNIT
 70
     2
  9
$DIMLWD
 70
     0
  9
$DIMLWE
 70
     0
  9
$DIMTMOVE
 70
     0
  9
$LUNITS
 70
     2
  9
$LUPREC
 70
     4
  9
$SKETCHINC
 40
0.1
  9
$FILLETRAD
 40
0.0
  9
$AUNITS
 70
     0
  9
$AUPREC
 70
     0
  9
$MENU
  1
acad
  9
$ELEVATION
 40
0.0
  9
$PELEVATION
 40
0.0
  9
$THICKNESS
 40
0.0
  9
$LIMCHECK
 70
     0
  9
$CHAMFERA
 40
0.0
  9
$CHAMFERB
 40
0.0
  9
$CHAMFERC
 40
0.0
  9
$CHAMFERD
 40
0.0
  9
$SKPOLY
 70
     0
  9
$TDCREATE
 40
0.000000000
  9
$TDUCREATE
 40
0.000000000
  9
$TDUPDATE
 40
0.000000000
  9
$TDUUPDATE
 40
0.000000000
  9
$TDINDWG
 40
0.0000000000
  9
$TDUSRTIMER
 40
0.0000000000
  9
$USRTIMER
 70
     1
  9
$ANGBASE
 50
0.0
  9
$ANGDIR
 70
     0
  9
$PDMODE
 70
     0
  9
$PDSIZE
 40
0.0
  9
$PLINEWID
 40
0.0
  9
$SPLFRAME
 70
     0
  9
$SPLINETYPE
 70
     6
  9
$SPLINESEGS
 70
     8
  9
$HANDSEED
  5
130
  9
$SURFTAB1
 70
     6
  9
$SURFTAB2
 70
     6
  9
$SURFTYPE
 70
     6
  9
$SURFU
 70
     6
  9
$SURFV
 70
     6
  9
$UCSBASE
  2

  9
$UCSNAME
  2

  9
$UCSORG
 10
0.0
 20
0.0
 30
0.0
  9
$UCSXDIR
 10
1.0
 20
0.0
 30
0.0
  9
$UCSYDIR
 10
0.0
 20
1.0
 30
0.0
  9
$UCSORTHOREF
  2

  9
$UCSORTHOVIEW
 70
     0
  9
$UCSORGTOP
 10
0.0
 20
0.0
 30
0.0
  9
$UCSORGBOTTOM
 10
0.0
 20
0.0
 30
0.0
  9
$UCSORGLEFT
 10
0.0
 20
0.0
 30
0.0
  9
$UCSORGRIGHT
 10
0.0
 20
0.0
 30
0.0
  9
$UCSORGFRONT
 10
0.0
 20
0.0
 30
0.0
  9
$UCSORGBACK
 10
0.0
 20
0.0
 30
0.0
  9
$PUCSBASE
  2

  9
$PUCSNAME
  2

  9
$PUCSORG
 10
0.0
 20
0.0
 30
0.0
  9
$PUCSXDIR
 10
1.0
 20
0.0
 30
0.0
  9
$PUCSYDIR
 10
0.0
 20
1.0
 30
0.0
  9
$PUCSORTHOREF
  2

  9
$PUCSORTHOVIEW
 70
     0
  9
$PUCSORGTOP
 10
0.0
 20
0.0
 30
0.0
  9
$PUCSORGBOTTOM
 10
0.0
 20
0.0
 30
0.0
  9
$PUCSORGLEFT
 10
0.0
 20
0.0
 30
0.0
  9
$PUCSORGRIGHT
 10
0.0
 20
0.0
 30
0.0
  9
$PUCSORGFRONT
 10
0.0
 20
0.0
 30
0.0
  9
$PUCSORGBACK
 10
0.0
 20
0.0
 30
0.0
  9
$USERI1
 70
     0
  9
$USERI2
 70
     0
  9
$USERI3
 70
     0
  9
$USERI4
 70
     0
  9
$USERI5
 70
     0
  9
$USERR1
 40
0.0
  9
$USERR2
 40
0.0
  9
$USERR3
 40
0.0
  9
$USERR4
 40
0.0
  9
$USERR5
 40
0.0
  9
$WORLDVIEW
 70
     1
  9
$SHADEDGE
 70
     3
  9
$SHADEDIF
 70
    70
  9
$TILEMODE
 70
     1
  9
$MAXACTVP
 70
    16
  9
$PINSBASE
 10
0.0
 20
0.0
 30
0.0
  9
$PLIMCHECK
 70
     0
  9
$PEXTMIN
 10
1.000000E+20
 20
1.000000E+20
 30
1.000000E+20
  9
$PEXTMAX
 10
-1.000000E+20
 20
-1.000000E+20
 30
-1.000000E+20
  9
$PLIMMIN
 10
0.0
 20
0.0
  9
$PLIMMAX
 10
12.0
 20
9.0
  9
$UNITMODE
 70
     0
  9
$VISRETAIN
 70
     0
  9
$PLINEGEN
 70
     1
  9
$PSLTSCALE
 70
     0
  9
$TREEDEPTH
 70
  3020
  9
$CMLSTYLE
  2
Standard
  9
$CMLJUST
 70
     0
  9
$CMLSCALE
 40
1.0
  9
$PROXYGRAPHICS
 70
     0
  9
$MEASUREMENT
 70
     1
  9
$CELWEIGHT
370
     0
  9
$ENDCAPS
280
     0
  9
$JOINSTYLE
280
     0
  9
$LWDISPLAY
290
     0
  9
$INSUNITS
 70
     0
  9
$HYPERLINKBASE
  1

  9
$STYLESHEET
  1

  9
$XEDIT
290
     1
  9
$CEPSNTYPE
380
     0
  9
$PSTYLEMODE
290
     1
  9
$FINGERPRINTGUID
  2

  9
$VERSIONGUID
  2

  9
$EXTNAMES
290
     1
  9
$PSVPSCALE
 40
0.0
  0
ENDSEC
  0
SECTION
  2
CLASSES
  0
CLASS
  1
LWPOLYLINE
  2
AcDbPolyline
  3
AutoCAD 2000
 90
    32768
280
     0
281
     1
  0
CLASS
  1
IMAGE
  2
AcDbRasterImage
  3
ISM
 90
    32895
280
     0
281
     1
  0
CLASS
  1
OLE2FRAME
  2
AcDbOle2Frame
  3
AutoCAD 2000
 90
    32768
280
     0
281
     1
  0
CLASS
  1
HATCH
  2
AcDbHatch
  3
AutoCAD 2000
 90
        0
280
     0
281
     1
  0
CLASS
  1
DICTIONARYVAR
  2
AcDbDictionaryVar
  3
AutoCAD 2000
 90
    32768
280
     0
281
     0
  0
CLASS
  1
RASTERVARIABLES
  2
AcDbRasterVariables
  3
ISM
 90
    32768
280
     0
281
     0
  0
CLASS
  1
IMAGEDEF
  2
AcDbRasterImageDef
  3
ISM
 90
    32768
280
     0
281
     0
  0
CLASS
  1
IMAGEDEF_REACTOR
  2
AcDbRasterImageDefReactor
  3
ISM
 90
    32769
280
     0
281
     0
  0
CLASS
  1
IDBUFFER
  2
AcDbIdBuffer
  3
AutoCAD 2000
 90
    32768
280
     0
281
     0
  0
CLASS
  1
SPATIAL_FILTER
  2
AcDbSpatialFilter
  3
AutoCAD 2000
 90
    32768
280
     0
281
     0
  0
CLASS
  1
XRECORD
  2
AcDbXrecord
  3
AutoCAD 2000
 90
    32768
280
     0
281
     0
  0
CLASS
  1
SORTENTSTABLE
  2
AcDbSortentsTable
  3
AutoCAD 2000
 90
    32768
280
     0
281
     0
  0
CLASS
  1
LAYER_INDEX
  2
AcDbLayerIndex
  3
AutoCAD 2000
 90
    32768
280
     0
281
     0
  0
CLASS
  1
SPATIAL_INDEX
  2
AcDbSpatialIndex
  3
AutoCAD 2000
 90
    32768
280
     0
281
     0
  0
CLASS
  1
OBJECT_PTR
  2
CAseDLPNTableRecord
  3
"ASE-LPNTableRecord"
 90
    32769
280
     0
281
     0
  0
CLASS
  1
LAYOUT
  2
AcDbLayout
  3
AutoCAD 2000
 90
        0
280
     0
281
     0
  0
CLASS
  1
PLOTSETTINGS
  2
AcDbPlotSettings
  3
AutoCAD 2000
 90
    32768
280
     0
281
     0
  0
CLASS
  1
ACDBDICTIONARYWDFLT
  2
AcDbDictionaryWithDefault
  3
AutoCAD 2000
 90
        0
280
     0
281
     0
  0
CLASS
  1
ACDBPLACEHOLDER
  2
AcDbPlaceHolder
  3
AutoCAD 2000
 90
        0
280
     0
281
     0
  0
CLASS
  1
VBA_PROJECT
  2
AcDbVbaProject
  3
acadvba
 90
    32768
280
     0
281
     0
  0
CLASS
  1
WIPEOUT
  2
AcDbWipeout
  3
WipeOut|AutoCAD Express Tool|expresstools@autodesk.com
 90
    32895
280
     0
281
     1
  0
CLASS
  1
WIPEOUTVARIABLES
  2
AcDbWipeoutVariables
  3
WipeOut|AutoCAD Express Tool|expresstools@autodesk.com
 90
        0
280
     0
281
     0
  0
CLASS
  1
RTEXT
  2
RText
  3
RText|AutoCAD Express Tool|expresstools@autodesk.com
 90
    32768
280
     0
281
     1
  0
CLASS
  1
ARCALIGNEDTEXT
  2
AcDbArcAlignedText
  3
ATEXT|AutoCAD Express Tool|expresstools@autodesk.com
 90
    32768
280
     0
281
     1
  0
ENDSEC
  0
SECTION
  2
TABLES
  0
TABLE
  2
VPORT
  5
7
100
AcDbSymbolTable
 70
     1
  0
VPORT
  5
15
100
AcDbSymbolTableRecord
100
AcDbViewportTableRecord
  2
*ACTIVE
 70
     0
 10
0.0
 20
0.0
 11
1.0
 21
1.0
 12
6.591288
 22
4.579184
 13
0.0
 23
0.0
 14
1.0
 24
1.0
 15
0.0
 25
0.0
 16
0.0
 26
0.0
 36
1.0
 17
0.0
 27
0.0
 37
0.0
 40
9.158369
 41
0.688564
 42
50.0
 43
0.0
 44
0.0
 50
0.0
 51
0.0
 71
     0
 72
   100
 73
     1
 74
     1
 75
     0
 76
     0
 77
     0
 78
     0
281
     0
 65
     0
110
0.0
120
0.0
130
0.0
111
1.0
121
0.0
131
0.0
112
0.0
122
1.0
132
0.0
345
0
346
0
 79
     0
146
0.0
  0
ENDTAB
  0
TABLE
  2
LTYPE
  5
4
100
AcDbSymbolTable
 70
     3
  0
LTYPE
  5
11
100
AcDbSymbolTableRecord
100
AcDbLinetypeTableRecord
  2
ByBlock
 70
    64
  3

 72
    65
 73
     0
 40
0.0
  0
LTYPE
  5
12
100
AcDbSymbolTableRecord
100
AcDbLinetypeTableRecord
  2
ByLayer
 70
    64
  3

 72
    65
 73
     0
 40
0.0
  0
LTYPE
  5
13
100
AcDbSymbolTableRecord
100
AcDbLinetypeTableRecord
  2
Continuous
 70
    64
  3
Solid line
 72
    65
 73
     0
 40
0.0
  0
ENDTAB
  0
TABLE
  2
LAYER
  5
2
100
AcDbSymbolTable
 70
     2
  0
LAYER
  5
14
100
AcDbSymbolTableRecord
100
AcDbLayerTableRecord
  2
0
 70
     0
 62
     7
  6
Continuous
290
     1
370
    -3
390
1D
  0
LAYER
  5
28
100
AcDbSymbolTableRecord
100
AcDbLayerTableRecord
  2
LAYER_1
 70
     0
 62
   160
  6
Continuous
290
     1
370
    -3
390
1D
  0
ENDTAB
  0
TABLE
  2
STYLE
  5
3
100
AcDbSymbolTable
 70
     5
  0
STYLE
  5
17
100
AcDbSymbolTableRecord
100
AcDbTextStyleTableRecord
  2
Standard
 70
     0
 40
0.0
 41
1.0
 50
0.0
 71
     0
 42
0.0
  3
txt
  4

  0
STYLE
  5
24
100
AcDbSymbolTableRecord
100
AcDbTextStyleTableRecord
  2
STD
 70
     0
 40
0.0
 41
1.0
 50
0.0
 71
     0
 42
0.0
  3
txt
  4

  0
STYLE
  5
25
100
AcDbSymbolTableRecord
100
AcDbTextStyleTableRecord
  2
TATESTD
 70
     4
 40
0.0
 41
1.0
 50
0.0
 71
     0
 42
0.0
  3
txt
  4

  0
STYLE
  5
26
100
AcDbSymbolTableRecord
100
AcDbTextStyleTableRecord
  2
KANJISTD
 70
     0
 40
0.0
 41
1.0
 50
0.0
 71
     0
 42
0.0
  3
txt
  4
extfont
  0
STYLE
  5
27
100
AcDbSymbolTableRecord
100
AcDbTextStyleTableRecord
  2
KANJITATE
 70
     4
 40
0.0
 41
1.0
 50
0.0
 71
     0
 42
0.0
  3
txt
  4
extfont
  0
ENDTAB
  0
TABLE
  2
VIEW
  5
5
100
AcDbSymbolTable
 70
     0
  0
ENDTAB
  0
TABLE
  2
UCS
  5
6
100
AcDbSymbolTable
 70
     0
  0
ENDTAB
  0
TABLE
  2
APPID
  5
8
100
AcDbSymbolTable
 70
     1
  0
APPID
  5
16
100
AcDbSymbolTableRecord
100
AcDbRegAppTableRecord
  2
ACAD
 70
     0
  0
ENDTAB
  0
TABLE
  2
DIMSTYLE
  5
9
100
AcDbSymbolTable
 70
     1
100
AcDbDimStyleTable
 71
     0
  0
DIMSTYLE
105
18
100
AcDbSymbolTableRecord
100
AcDbDimStyleTableRecord
  2
Standard
 70
     0
  3

  4

 40
1.0
 41
0.18
 42
0.0625
 43
0.38
 44
0.18
 45
0.0
 46
0.0
 47
0.0
 48
0.0
 71
     0
 72
     0
 73
     1
 74
     1
 75
     0
 76
     0
 77
     0
 78
     0
 79
     0
140
0.18
141
0.09
142
0.0
143
25.4
144
1.0
145
0.0
146
1.0
147
0.09
148
0.0
170
     0
171
     2
172
     0
173
     0
174
     0
175
     0
176
     0
177
     0
178
     0
179
     0
271
     4
272
     4
273
     2
274
     2
275
     0
276
     0
277
     2
278
    46
279
     0
280
     0
281
     0
282
     0
283
     1
284
     0
285
     0
286
     0
288
     0
340
17
341
0
342
0
343
0
344
0
371
    -2
372
    -2
  0
ENDTAB
  0
TABLE
  2
BLOCK_RECORD
  5
1
100
AcDbSymbolTable
 70
     0
  0
BLOCK_RECORD
  5
A
100
AcDbSymbolTableRecord
100
AcDbBlockTableRecord
  2
*MODEL_SPACE
340
20
  0
BLOCK_RECORD
  5
B
100
AcDbSymbolTableRecord
100
AcDbBlockTableRecord
  2
*PAPER_SPACE
340
21
  0
ENDTAB
  0
ENDSEC
  0
SECTION
  2
BLOCKS
  0
BLOCK
  5
D
100
AcDbEntity
  8
0
100
AcDbBlockBegin
  2
*MODEL_SPACE
 70
     0
 10
0.0
 20
0.0
 30
0.0
  3
*MODEL_SPACE
  1

  0
ENDBLK
  5
E
100
AcDbEntity
  8
0
100
AcDbBlockEnd
  0
BLOCK
  5
F
100
AcDbEntity
 67
     1
  8
0
100
AcDbBlockBegin
  2
*PAPER_SPACE
 70
     0
 10
0.0
 20
0.0
 30
0.0
  3
*PAPER_SPACE
  1

  0
ENDBLK
  5
10
100
AcDbEntity
 67
     1
  8
0
100
AcDbBlockEnd
  0
ENDSEC
  0
SECTION
  2
ENTITIES
  0
HATCH
  5
12F
100
AcDbEntity
  8
LAYER_1
 62
     7
100
AcDbHatch
 10
0.0
 20
0.0
 30
0.0
210
0.0
220
0.0
230
1.0
  2
SOLID
 70
     1
 71
     0
 91
        1
 92
        3
 72
     0
 73
     0
 93
        4
 10
14.747937011718749
 20
44.969520399305551
 10
14.988232421874999
 20
43.529125976562497
 10
14.507641601562499
 20
43.529125976562497
 10
14.747937011718749
 20
44.969520399305551
 97
        0
 75
     2
 76
     1
 98
        1
 10
0.0
 20
0.0
  0
POLYLINE
  5
129
100
AcDbEntity
  8
LAYER_1
 62
     7
100
AcDb2dPolyline
 66
     1
 10
0.0
 20
0.0
 30
0.0
  0
VERTEX
  5
12A
100
AcDbEntity
  8
LAYER_1
 62
     7
100
AcDbVertex
100
AcDb2dVertex
 10
14.747937
 20
44.96952
 30
0.0
  0
VERTEX
  5
12B
100
AcDbEntity
  8
LAYER_1
 62
     7
100
AcDbVertex
100
AcDb2dVertex
 10
14.988232
 20
43.529126
 30
0.0
  0
VERTEX
  5
12C
100
AcDbEntity
  8
LAYER_1
 62
     7
100
AcDbVertex
100
AcDb2dVertex
 10
14.507642
 20
43.529126
 30
0.0
  0
VERTEX
  5
12D
100
AcDbEntity
  8
LAYER_1
 62
     7
100
AcDbVertex
100
AcDb2dVertex
 10
14.747937
 20
44.96952
 30
0.0
  0
SEQEND
  5
12E
100
AcDbEntity
  8
LAYER_1
 62
     7
  0
HATCH
  5
128
100
AcDbEntity
  8
LAYER_1
 62
     7
100
AcDbHatch
 10
0.0
 20
0.0
 30
0.0
210
0.0
220
0.0
230
1.0
  2
SOLID
 70
     1
 71
     0
 91
        1
 92
        3
 72
     0
 73
     0
 93
        4
 10
14.747937011718749
 20
29.98921169704861
 10
14.507641601562499
 20
31.429261610243053
 10
14.988232421874999
 20
31.429261610243053
 10
14.747937011718749
 20
29.98921169704861
 97
        0
 75
     2
 76
     1
 98
        1
 10
0.0
 20
0.0
  0
POLYLINE
  5
122
100
AcDbEntity
  8
LAYER_1
 62
     7
100
AcDb2dPolyline
 66
     1
 10
0.0
 20
0.0
 30
0.0
  0
VERTEX
  5
123
100
AcDbEntity
  8
LAYER_1
 62
     7
100
AcDbVertex
100
AcDb2dVertex
 10
14.747937
 20
29.989212
 30
0.0
  0
VERTEX
  5
124
100
AcDbEntity
  8
LAYER_1
 62
     7
100
AcDbVertex
100
AcDb2dVertex
 10
14.507642
 20
31.429262
 30
0.0
  0
VERTEX
  5
125
100
AcDbEntity
  8
LAYER_1
 62
     7
100
AcDbVertex
100
AcDb2dVertex
 10
14.988232
 20
31.429262
 30
0.0
  0
VERTEX
  5
126
100
AcDbEntity
  8
LAYER_1
 62
     7
100
AcDbVertex
100
AcDb2dVertex
 10
14.747937
 20
29.989212
 30
0.0
  0
SEQEND
  5
127
100
AcDbEntity
  8
LAYER_1
 62
     7
  0
HATCH
  5
121
100
AcDbEntity
  8
LAYER_1
 62
     7
100
AcDbHatch
 10
0.0
 20
0.0
 30
0.0
210
0.0
220
0.0
230
1.0
  2
SOLID
 70
     1
 71
     0
 91
        1
 92
        3
 72
     0
 73
     0
 93
        4
 10
6.6812459309895829
 20
44.969520399305551
 10
6.9215413411458329
 20
43.529125976562497
 10
6.4411227756076386
 20
43.529125976562497
 10
6.6812459309895829
 20
44.969520399305551
 97
        0
 75
     2
 76
     1
 98
        1
 10
0.0
 20
0.0
  0
POLYLINE
  5
11B
100
AcDbEntity
  8
LAYER_1
 62
     7
100
AcDb2dPolyline
 66
     1
 10
0.0
 20
0.0
 30
0.0
  0
VERTEX
  5
11C
100
AcDbEntity
  8
LAYER_1
 62
     7
100
AcDbVertex
100
AcDb2dVertex
 10
6.681246
 20
44.96952
 30
0.0
  0
VERTEX
  5
11D
100
AcDbEntity
  8
LAYER_1
 62
     7
100
AcDbVertex
100
AcDb2dVertex
 10
6.921541
 20
43.529126
 30
0.0
  0
VERTEX
  5
11E
100
AcDbEntity
  8
LAYER_1
 62
     7
100
AcDbVertex
100
AcDb2dVertex
 10
6.441123
 20
43.529126
 30
0.0
  0
VERTEX
  5
11F
100
AcDbEntity
  8
LAYER_1
 62
     7
100
AcDbVertex
100
AcDb2dVertex
 10
6.681246
 20
44.96952
 30
0.0
  0
SEQEND
  5
120
100
AcDbEntity
  8
LAYER_1
 62
     7
  0
HATCH
  5
11A
100
AcDbEntity
  8
LAYER_1
 62
     7
100
AcDbHatch
 10
0.0
 20
0.0
 30
0.0
210
0.0
220
0.0
230
1.0
  2
SOLID
 70
     1
 71
     0
 91
        1
 92
        3
 72
     0
 73
     0
 93
        4
 10
6.6812459309895829
 20
18.465711805555554
 10
6.4411227756076386
 20
19.906106228298608
 10
6.9215413411458329
 20
19.906106228298608
 10
6.6812459309895829
 20
18.465711805555554
 97
        0
 75
     2
 76
     1
 98
        1
 10
0.0
 20
0.0
  0
POLYLINE
  5
114
100
AcDbEntity
  8
LAYER_1
 62
     7
100
AcDb2dPolyline
 66
     1
 10
0.0
 20
0.0
 30
0.0
  0
VERTEX
  5
115
100
AcDbEntity
  8
LAYER_1
 62
     7
100
AcDbVertex
100
AcDb2dVertex
 10
6.681246
 20
18.465712
 30
0.0
  0
VERTEX
  5
116
100
AcDbEntity
  8
LAYER_1
 62
     7
100
AcDbVertex
100
AcDb2dVertex
 10
6.441123
 20
19.906106
 30
0.0
  0
VERTEX
  5
117
100
AcDbEntity
  8
LAYER_1
 62
     7
100
AcDbVertex
100
AcDb2dVertex
 10
6.921541
 20
19.906106
 30
0.0
  0
VERTEX
  5
118
100
AcDbEntity
  8
LAYER_1
 62
     7
100
AcDbVertex
100
AcDb2dVertex
 10
6.681246
 20
18.465712
 30
0.0
  0
SEQEND
  5
119
100
AcDbEntity
  8
LAYER_1
 62
     7
  0
HATCH
  5
113
100
AcDbEntity
  8
LAYER_1
 62
     7
100
AcDbHatch
 10
0.0
 20
0.0
 30
0.0
210
0.0
220
0.0
230
1.0
  2
SOLID
 70
     1
 71
     0
 91
        1
 92
        3
 72
     0
 73
     0
 93
        4
 10
38.38938802083333
 20
7.5182318793402771
 10
39.829782443576384
 20
7.7586995442708329
 10
39.829782443576384
 20
7.2777642144097214
 10
38.38938802083333
 20
7.5182318793402771
 97
        0
 75
     2
 76
     1
 98
        1
 10
0.0
 20
0.0
  0
POLYLINE
  5
10D
100
AcDbEntity
  8
LAYER_1
 62
     7
100
AcDb2dPolyline
 66
     1
 10
0.0
 20
0.0
 30
0.0
  0
VERTEX
  5
10E
100
AcDbEntity
  8
LAYER_1
 62
     7
100
AcDbVertex
100
AcDb2dVertex
 10
38.389388
 20
7.518232
 30
0.0
  0
VERTEX
  5
10F
100
AcDbEntity
  8
LAYER_1
 62
     7
100
AcDbVertex
100
AcDb2dVertex
 10
39.829782
 20
7.7587
 30
0.0
  0
VERTEX
  5
110
100
AcDbEntity
  8
LAYER_1
 62
     7
100
AcDbVertex
100
AcDb2dVertex
 10
39.829782
 20
7.277764
 30
0.0
  0
VERTEX
  5
111
100
AcDbEntity
  8
LAYER_1
 62
     7
100
AcDbVertex
100
AcDb2dVertex
 10
38.389388
 20
7.518232
 30
0.0
  0
SEQEND
  5
112
100
AcDbEntity
  8
LAYER_1
 62
     7
  0
HATCH
  5
10C
100
AcDbEntity
  8
LAYER_1
 62
     7
100
AcDbHatch
 10
0.0
 20
0.0
 30
0.0
210
0.0
220
0.0
230
1.0
  2
SOLID
 70
     1
 71
     0
 91
        1
 92
        3
 72
     0
 73
     0
 93
        4
 10
53.369696723090271
 20
7.5182318793402771
 10
51.929302300347217
 20
7.2777642144097214
 10
51.929302300347217
 20
7.7586995442708329
 10
53.369696723090271
 20
7.5182318793402771
 97
        0
 75
     2
 76
     1
 98
        1
 10
0.0
 20
0.0
  0
POLYLINE
  5
106
100
AcDbEntity
  8
LAYER_1
 62
     7
100
AcDb2dPolyline
 66
     1
 10
0.0
 20
0.0
 30
0.0
  0
VERTEX
  5
107
100
AcDbEntity
  8
LAYER_1
 62
     7
100
AcDbVertex
100
AcDb2dVertex
 10
53.369697
 20
7.518232
 30
0.0
  0
VERTEX
  5
108
100
AcDbEntity
  8
LAYER_1
 62
     7
100
AcDbVertex
100
AcDb2dVertex
 10
51.929302
 20
7.277764
 30
0.0
  0
VERTEX
  5
109
100
AcDbEntity
  8
LAYER_1
 62
     7
100
AcDbVertex
100
AcDb2dVertex
 10
51.929302
 20
7.7587
 30
0.0
  0
VERTEX
  5
10A
100
AcDbEntity
  8
LAYER_1
 62
     7
100
AcDbVertex
100
AcDb2dVertex
 10
53.369697
 20
7.518232
 30
0.0
  0
SEQEND
  5
10B
100
AcDbEntity
  8
LAYER_1
 62
     7
  0
HATCH
  5
105
100
AcDbEntity
  8
LAYER_1
 62
     7
100
AcDbHatch
 10
0.0
 20
0.0
 30
0.0
210
0.0
220
0.0
230
1.0
  2
SOLID
 70
     1
 71
     0
 91
        1
 92
        3
 72
     0
 73
     0
 93
        4
 10
56.250830078124991
 20
7.5182318793402771
 10
57.691224500868053
 20
7.7586995442708329
 10
57.691224500868053
 20
7.2777642144097214
 10
56.250830078124991
 20
7.5182318793402771
 97
        0
 75
     2
 76
     1
 98
        1
 10
0.0
 20
0.0
  0
POLYLINE
  5
FF
100
AcDbEntity
  8
LAYER_1
 62
     7
100
AcDb2dPolyline
 66
     1
 10
0.0
 20
0.0
 30
0.0
  0
VERTEX
  5
100
100
AcDbEntity
  8
LAYER_1
 62
     7
100
AcDbVertex
100
AcDb2dVertex
 10
56.25083
 20
7.518232
 30
0.0
  0
VERTEX
  5
101
100
AcDbEntity
  8
LAYER_1
 62
     7
100
AcDbVertex
100
AcDb2dVertex
 10
57.691225
 20
7.7587
 30
0.0
  0
VERTEX
  5
102
100
AcDbEntity
  8
LAYER_1
 62
     7
100
AcDbVertex
100
AcDb2dVertex
 10
57.691225
 20
7.277764
 30
0.0
  0
VERTEX
  5
103
100
AcDbEntity
  8
LAYER_1
 62
     7
100
AcDbVertex
100
AcDb2dVertex
 10
56.25083
 20
7.518232
 30
0.0
  0
SEQEND
  5
104
100
AcDbEntity
  8
LAYER_1
 62
     7
  0
HATCH
  5
FE
100
AcDbEntity
  8
LAYER_1
 62
     7
100
AcDbHatch
 10
0.0
 20
0.0
 30
0.0
210
0.0
220
0.0
230
1.0
  2
SOLID
 70
     1
 71
     0
 91
        1
 92
        3
 72
     0
 73
     0
 93
        4
 10
53.369696723090271
 20
7.5182318793402771
 10
51.929302300347217
 20
7.2777642144097214
 10
51.929302300347217
 20
7.7586995442708329
 10
53.369696723090271
 20
7.5182318793402771
 97
        0
 75
     2
 76
     1
 98
        1
 10
0.0
 20
0.0
  0
POLYLINE
  5
F8
100
AcDbEntity
  8
LAYER_1
 62
     7
100
AcDb2dPolyline
 66
     1
 10
0.0
 20
0.0
 30
0.0
  0
VERTEX
  5
F9
100
AcDbEntity
  8
LAYER_1
 62
     7
100
AcDbVertex
100
AcDb2dVertex
 10
53.369697
 20
7.518232
 30
0.0
  0
VERTEX
  5
FA
100
AcDbEntity
  8
LAYER_1
 62
     7
100
AcDbVertex
100
AcDb2dVertex
 10
51.929302
 20
7.277764
 30
0.0
  0
VERTEX
  5
FB
100
AcDbEntity
  8
LAYER_1
 62
     7
100
AcDbVertex
100
AcDb2dVertex
 10
51.929302
 20
7.7587
 30
0.0
  0
VERTEX
  5
FC
100
AcDbEntity
  8
LAYER_1
 62
     7
100
AcDbVertex
100
AcDb2dVertex
 10
53.369697
 20
7.518232
 30
0.0
  0
SEQEND
  5
FD
100
AcDbEntity
  8
LAYER_1
 62
     7
  0
HATCH
  5
F7
100
AcDbEntity
  8
LAYER_1
 62
     7
100
AcDbHatch
 10
0.0
 20
0.0
 30
0.0
210
0.0
220
0.0
230
1.0
  2
SOLID
 70
     1
 71
     0
 91
        1
 92
        3
 72
     0
 73
     0
 93
        4
 10
14.747937011718749
 20
47.850653754340271
 10
14.507641601562499
 20
49.291048177083326
 10
14.988232421874999
 20
49.291048177083326
 10
14.747937011718749
 20
47.850653754340271
 97
        0
 75
     2
 76
     1
 98
        1
 10
0.0
 20
0.0
  0
POLYLINE
  5
F1
100
AcDbEntity
  8
LAYER_1
 62
     7
100
AcDb2dPolyline
 66
     1
 10
0.0
 20
0.0
 30
0.0
  0
VERTEX
  5
F2
100
AcDbEntity
  8
LAYER_1
 62
     7
100
AcDbVertex
100
AcDb2dVertex
 10
14.747937
 20
47.850654
 30
0.0
  0
VERTEX
  5
F3
100
AcDbEntity
  8
LAYER_1
 62
     7
100
AcDbVertex
100
AcDb2dVertex
 10
14.507642
 20
49.291048
 30
0.0
  0
VERTEX
  5
F4
100
AcDbEntity
  8
LAYER_1
 62
     7
100
AcDbVertex
100
AcDb2dVertex
 10
14.988232
 20
49.291048
 30
0.0
  0
VERTEX
  5
F5
100
AcDbEntity
  8
LAYER_1
 62
     7
100
AcDbVertex
100
AcDb2dVertex
 10
14.747937
 20
47.850654
 30
0.0
  0
SEQEND
  5
F6
100
AcDbEntity
  8
LAYER_1
 62
     7
  0
HATCH
  5
F0
100
AcDbEntity
  8
LAYER_1
 62
     7
100
AcDbHatch
 10
0.0
 20
0.0
 30
0.0
210
0.0
220
0.0
230
1.0
  2
SOLID
 70
     1
 71
     0
 91
        1
 92
        3
 72
     0
 73
     0
 93
        4
 10
14.747937011718749
 20
44.969520399305551
 10
14.988232421874999
 20
43.529125976562497
 10
14.507641601562499
 20
43.529125976562497
 10
14.747937011718749
 20
44.969520399305551
 97
        0
 75
     2
 76
     1
 98
        1
 10
0.0
 20
0.0
  0
POLYLINE
  5
EA
100
AcDbEntity
  8
LAYER_1
 62
     7
100
AcDb2dPolyline
 66
     1
 10
0.0
 20
0.0
 30
0.0
  0
VERTEX
  5
EB
100
AcDbEntity
  8
LAYER_1
 62
     7
100
AcDbVertex
100
AcDb2dVertex
 10
14.747937
 20
44.96952
 30
0.0
  0
VERTEX
  5
EC
100
AcDbEntity
  8
LAYER_1
 62
     7
100
AcDbVertex
100
AcDb2dVertex
 10
14.988232
 20
43.529126
 30
0.0
  0
VERTEX
  5
ED
100
AcDbEntity
  8
LAYER_1
 62
     7
100
AcDbVertex
100
AcDb2dVertex
 10
14.507642
 20
43.529126
 30
0.0
  0
VERTEX
  5
EE
100
AcDbEntity
  8
LAYER_1
 62
     7
100
AcDbVertex
100
AcDb2dVertex
 10
14.747937
 20
44.96952
 30
0.0
  0
SEQEND
  5
EF
100
AcDbEntity
  8
LAYER_1
 62
     7
  0
HATCH
  5
E9
100
AcDbEntity
  8
LAYER_1
 62
     7
100
AcDbHatch
 10
0.0
 20
0.0
 30
0.0
210
0.0
220
0.0
230
1.0
  2
SOLID
 70
     1
 71
     0
 91
        1
 92
        3
 72
     0
 73
     0
 93
        4
 10
22.814111328124998
 20
55.916828070746526
 10
24.254505750868052
 20
56.157123480902776
 10
24.254505750868052
 20
55.677049424913193
 10
22.814111328124998
 20
55.916828070746526
 97
        0
 75
     2
 76
     1
 98
        1
 10
0.0
 20
0.0
  0
POLYLINE
  5
E3
100
AcDbEntity
  8
LAYER_1
 62
     7
100
AcDb2dPolyline
 66
     1
 10
0.0
 20
0.0
 30
0.0
  0
VERTEX
  5
E4
100
AcDbEntity
  8
LAYER_1
 62
     7
100
AcDbVertex
100
AcDb2dVertex
 10
22.814111
 20
55.916828
 30
0.0
  0
VERTEX
  5
E5
100
AcDbEntity
  8
LAYER_1
 62
     7
100
AcDbVertex
100
AcDb2dVertex
 10
24.254506
 20
56.157123
 30
0.0
  0
VERTEX
  5
E6
100
AcDbEntity
  8
LAYER_1
 62
     7
100
AcDbVertex
100
AcDb2dVertex
 10
24.254506
 20
55.677049
 30
0.0
  0
VERTEX
  5
E7
100
AcDbEntity
  8
LAYER_1
 62
     7
100
AcDbVertex
100
AcDb2dVertex
 10
22.814111
 20
55.916828
 30
0.0
  0
SEQEND
  5
E8
100
AcDbEntity
  8
LAYER_1
 62
     7
  0
HATCH
  5
E2
100
AcDbEntity
  8
LAYER_1
 62
     7
100
AcDbHatch
 10
0.0
 20
0.0
 30
0.0
210
0.0
220
0.0
230
1.0
  2
SOLID
 70
     1
 71
     0
 91
        1
 92
        3
 72
     0
 73
     0
 93
        4
 10
56.250830078124991
 20
55.916828070746526
 10
54.810435655381937
 20
55.677049424913193
 10
54.810435655381937
 20
56.157123480902776
 10
56.250830078124991
 20
55.916828070746526
 97
        0
 75
     2
 76
     1
 98
        1
 10
0.0
 20
0.0
  0
POLYLINE
  5
DC
100
AcDbEntity
  8
LAYER_1
 62
     7
100
AcDb2dPolyline
 66
     1
 10
0.0
 20
0.0
 30
0.0
  0
VERTEX
  5
DD
100
AcDbEntity
  8
LAYER_1
 62
     7
100
AcDbVertex
100
AcDb2dVertex
 10
56.25083
 20
55.916828
 30
0.0
  0
VERTEX
  5
DE
100
AcDbEntity
  8
LAYER_1
 62
     7
100
AcDbVertex
100
AcDb2dVertex
 10
54.810436
 20
55.677049
 30
0.0
  0
VERTEX
  5
DF
100
AcDbEntity
  8
LAYER_1
 62
     7
100
AcDbVertex
100
AcDb2dVertex
 10
54.810436
 20
56.157123
 30
0.0
  0
VERTEX
  5
E0
100
AcDbEntity
  8
LAYER_1
 62
     7
100
AcDbVertex
100
AcDb2dVertex
 10
56.25083
 20
55.916828
 30
0.0
  0
SEQEND
  5
E1
100
AcDbEntity
  8
LAYER_1
 62
     7
  0
HATCH
  5
DB
100
AcDbEntity
  8
LAYER_1
 62
     7
100
AcDbHatch
 10
0.0
 20
0.0
 30
0.0
210
0.0
220
0.0
230
1.0
  2
SOLID
 70
     1
 71
     0
 91
        1
 92
        3
 72
     0
 73
     0
 93
        4
 10
72.383867730034709
 20
47.850653754340271
 10
72.623646375868049
 20
46.410259331597217
 10
72.143744574652771
 20
46.410259331597217
 10
72.383867730034709
 20
47.850653754340271
 97
        0
 75
     2
 76
     1
 98
        1
 10
0.0
 20
0.0
  0
POLYLINE
  5
D5
100
AcDbEntity
  8
LAYER_1
 62
     7
100
AcDb2dPolyline
 66
     1
 10
0.0
 20
0.0
 30
0.0
  0
VERTEX
  5
D6
100
AcDbEntity
  8
LAYER_1
 62
     7
100
AcDbVertex
100
AcDb2dVertex
 10
72.383868
 20
47.850654
 30
0.0
  0
VERTEX
  5
D7
100
AcDbEntity
  8
LAYER_1
 62
     7
100
AcDbVertex
100
AcDb2dVertex
 10
72.623646
 20
46.410259
 30
0.0
  0
VERTEX
  5
D8
100
AcDbEntity
  8
LAYER_1
 62
     7
100
AcDbVertex
100
AcDb2dVertex
 10
72.143745
 20
46.410259
 30
0.0
  0
VERTEX
  5
D9
100
AcDbEntity
  8
LAYER_1
 62
     7
100
AcDbVertex
100
AcDb2dVertex
 10
72.383868
 20
47.850654
 30
0.0
  0
SEQEND
  5
DA
100
AcDbEntity
  8
LAYER_1
 62
     7
  0
HATCH
  5
D4
100
AcDbEntity
  8
LAYER_1
 62
     7
100
AcDbHatch
 10
0.0
 20
0.0
 30
0.0
210
0.0
220
0.0
230
1.0
  2
SOLID
 70
     1
 71
     0
 91
        1
 92
        3
 72
     0
 73
     0
 93
        4
 10
72.383867730034709
 20
15.584578450520832
 10
72.143744574652771
 20
17.024972873263888
 10
72.623646375868049
 20
17.024972873263888
 10
72.383867730034709
 20
15.584578450520832
 97
        0
 75
     2
 76
     1
 98
        1
 10
0.0
 20
0.0
  0
POLYLINE
  5
CE
100
AcDbEntity
  8
LAYER_1
 62
     7
100
AcDb2dPolyline
 66
     1
 10
0.0
 20
0.0
 30
0.0
  0
VERTEX
  5
CF
100
AcDbEntity
  8
LAYER_1
 62
     7
100
AcDbVertex
100
AcDb2dVertex
 10
72.383868
 20
15.584578
 30
0.0
  0
VERTEX
  5
D0
100
AcDbEntity
  8
LAYER_1
 62
     7
100
AcDbVertex
100
AcDb2dVertex
 10
72.143745
 20
17.024973
 30
0.0
  0
VERTEX
  5
D1
100
AcDbEntity
  8
LAYER_1
 62
     7
100
AcDbVertex
100
AcDb2dVertex
 10
72.623646
 20
17.024973
 30
0.0
  0
VERTEX
  5
D2
100
AcDbEntity
  8
LAYER_1
 62
     7
100
AcDbVertex
100
AcDb2dVertex
 10
72.383868
 20
15.584578
 30
0.0
  0
SEQEND
  5
D3
100
AcDbEntity
  8
LAYER_1
 62
     7
  0
HATCH
  5
CD
100
AcDbEntity
  8
LAYER_1
 62
     7
100
AcDbHatch
 10
0.0
 20
0.0
 30
0.0
210
0.0
220
0.0
230
1.0
  2
SOLID
 70
     1
 71
     0
 91
        1
 92
        3
 72
     0
 73
     0
 93
        4
 10
64.31683213975694
 20
47.850653754340271
 10
64.557299804687489
 20
46.410259331597217
 10
64.0770534939236
 20
46.410259331597217
 10
64.31683213975694
 20
47.850653754340271
 97
        0
 75
     2
 76
     1
 98
        1
 10
0.0
 20
0.0
  0
POLYLINE
  5
C7
100
AcDbEntity
  8
LAYER_1
 62
     7
100
AcDb2dPolyline
 66
     1
 10
0.0
 20
0.0
 30
0.0
  0
VERTEX
  5
C8
100
AcDbEntity
  8
LAYER_1
 62
     7
100
AcDbVertex
100
AcDb2dVertex
 10
64.316832
 20
47.850654
 30
0.0
  0
VERTEX
  5
C9
100
AcDbEntity
  8
LAYER_1
 62
     7
100
AcDbVertex
100
AcDb2dVertex
 10
64.5573
 20
46.410259
 30
0.0
  0
VERTEX
  5
CA
100
AcDbEntity
  8
LAYER_1
 62
     7
100
AcDbVertex
100
AcDb2dVertex
 10
64.077053
 20
46.410259
 30
0.0
  0
VERTEX
  5
CB
100
AcDbEntity
  8
LAYER_1
 62
     7
100
AcDbVertex
100
AcDb2dVertex
 10
64.316832
 20
47.850654
 30
0.0
  0
SEQEND
  5
CC
100
AcDbEntity
  8
LAYER_1
 62
     7
  0
HATCH
  5
C6
100
AcDbEntity
  8
LAYER_1
 62
     7
100
AcDbHatch
 10
0.0
 20
0.0
 30
0.0
210
0.0
220
0.0
230
1.0
  2
SOLID
 70
     1
 71
     0
 91
        1
 92
        3
 72
     0
 73
     0
 93
        4
 10
64.31683213975694
 20
31.141251627604163
 10
64.0770534939236
 20
32.581646050347217
 10
64.557299804687489
 20
32.581646050347217
 10
64.31683213975694
 20
31.141251627604163
 97
        0
 75
     2
 76
     1
 98
        1
 10
0.0
 20
0.0
  0
POLYLINE
  5
C0
100
AcDbEntity
  8
LAYER_1
 62
     7
100
AcDb2dPolyline
 66
     1
 10
0.0
 20
0.0
 30
0.0
  0
VERTEX
  5
C1
100
AcDbEntity
  8
LAYER_1
 62
     7
100
AcDbVertex
100
AcDb2dVertex
 10
64.316832
 20
31.141252
 30
0.0
  0
VERTEX
  5
C2
100
AcDbEntity
  8
LAYER_1
 62
     7
100
AcDbVertex
100
AcDb2dVertex
 10
64.077053
 20
32.581646
 30
0.0
  0
VERTEX
  5
C3
100
AcDbEntity
  8
LAYER_1
 62
     7
100
AcDbVertex
100
AcDb2dVertex
 10
64.5573
 20
32.581646
 30
0.0
  0
VERTEX
  5
C4
100
AcDbEntity
  8
LAYER_1
 62
     7
100
AcDbVertex
100
AcDb2dVertex
 10
64.316832
 20
31.141252
 30
0.0
  0
SEQEND
  5
C5
100
AcDbEntity
  8
LAYER_1
 62
     7
  0
LINE
  5
BF
100
AcDbEntity
  8
LAYER_1
 62
     7
100
AcDbLine
 10
15.838999
 20
25.199151
 30
0.0
 11
17.039615
 21
27.359915
 31
0.0
  0
POLYLINE
  5
B0
100
AcDbEntity
  8
LAYER_1
 62
     7
100
AcDb2dPolyline
 66
     1
 10
0.0
 20
0.0
 30
0.0
  0
VERTEX
  5
B1
100
AcDbEntity
  8
LAYER_1
 62
     7
100
AcDbVertex
100
AcDb2dVertex
 10
15.719109
 20
26.279533
 30
0.0
  0
VERTEX
  5
B2
100
AcDbEntity
  8
LAYER_1
 62
     7
100
AcDbVertex
100
AcDb2dVertex
 10
15.838999
 20
26.639545
 30
0.0
  0
VERTEX
  5
B3
100
AcDbEntity
  8
LAYER_1
 62
     7
100
AcDbVertex
100
AcDb2dVertex
 10
16.079294
 20
26.879669
 30
0.0
  0
VERTEX
  5
B4
100
AcDbEntity
  8
LAYER_1
 62
     7
100
AcDbVertex
100
AcDb2dVertex
 10
16.439479
 20
26.999558
 30
0.0
  0
VERTEX
  5
B5
100
AcDbEntity
  8
LAYER_1
 62
     7
100
AcDbVertex
100
AcDb2dVertex
 10
16.799319
 20
26.879669
 30
0.0
  0
VERTEX
  5
B6
100
AcDbEntity
  8
LAYER_1
 62
     7
100
AcDbVertex
100
AcDb2dVertex
 10
17.039615
 20
26.639545
 30
0.0
  0
VERTEX
  5
B7
100
AcDbEntity
  8
LAYER_1
 62
     7
100
AcDbVertex
100
AcDb2dVertex
 10
17.159504
 20
26.279533
 30
0.0
  0
VERTEX
  5
B8
100
AcDbEntity
  8
LAYER_1
 62
     7
100
AcDbVertex
100
AcDb2dVertex
 10
17.039615
 20
25.91952
 30
0.0
  0
VERTEX
  5
B9
100
AcDbEntity
  8
LAYER_1
 62
     7
100
AcDbVertex
100
AcDb2dVertex
 10
16.799319
 20
25.679397
 30
0.0
  0
VERTEX
  5
BA
100
AcDbEntity
  8
LAYER_1
 62
     7
100
AcDbVertex
100
AcDb2dVertex
 10
16.439479
 20
25.559508
 30
0.0
  0
VERTEX
  5
BB
100
AcDbEntity
  8
LAYER_1
 62
     7
100
AcDbVertex
100
AcDb2dVertex
 10
16.079294
 20
25.679397
 30
0.0
  0
VERTEX
  5
BC
100
AcDbEntity
  8
LAYER_1
 62
     7
100
AcDbVertex
100
AcDb2dVertex
 10
15.838999
 20
25.91952
 30
0.0
  0
VERTEX
  5
BD
100
AcDbEntity
  8
LAYER_1
 62
     7
100
AcDbVertex
100
AcDb2dVertex
 10
15.719109
 20
26.279533
 30
0.0
  0
SEQEND
  5
BE
100
AcDbEntity
  8
LAYER_1
 62
     7
  0
HATCH
  5
AF
100
AcDbEntity
  8
LAYER_1
 62
     7
100
AcDbHatch
 10
0.0
 20
0.0
 30
0.0
210
0.0
220
0.0
230
1.0
  2
SOLID
 70
     1
 71
     0
 91
        1
 92
        3
 72
     0
 73
     0
 93
        4
 10
37.535865614149301
 20
29.707402886284719
 10
36.24343804253472
 20
29.028719075520829
 10
36.093059624565967
 20
29.48416069878472
 10
37.535865614149301
 20
29.707402886284719
 97
        0
 75
     2
 76
     1
 98
        1
 10
0.0
 20
0.0
  0
POLYLINE
  5
A9
100
AcDbEntity
  8
LAYER_1
 62
     7
100
AcDb2dPolyline
 66
     1
 10
0.0
 20
0.0
 30
0.0
  0
VERTEX
  5
AA
100
AcDbEntity
  8
LAYER_1
 62
     7
100
AcDbVertex
100
AcDb2dVertex
 10
37.535866
 20
29.707403
 30
0.0
  0
VERTEX
  5
AB
100
AcDbEntity
  8
LAYER_1
 62
     7
100
AcDbVertex
100
AcDb2dVertex
 10
36.243438
 20
29.028719
 30
0.0
  0
VERTEX
  5
AC
100
AcDbEntity
  8
LAYER_1
 62
     7
100
AcDbVertex
100
AcDb2dVertex
 10
36.09306
 20
29.484161
 30
0.0
  0
VERTEX
  5
AD
100
AcDbEntity
  8
LAYER_1
 62
     7
100
AcDbVertex
100
AcDb2dVertex
 10
37.535866
 20
29.707403
 30
0.0
  0
SEQEND
  5
AE
100
AcDbEntity
  8
LAYER_1
 62
     7
  0
LINE
  5
A8
100
AcDbEntity
  8
LAYER_1
 62
     7
100
AcDbLine
 10
22.814111
 20
55.916828
 30
0.0
 11
36.893872
 21
55.916828
 31
0.0
  0
LINE
  5
A7
100
AcDbEntity
  8
LAYER_1
 62
     7
100
AcDbLine
 10
56.25083
 20
55.916828
 30
0.0
 11
45.248918
 21
55.916828
 31
0.0
  0
LINE
  5
A6
100
AcDbEntity
  8
LAYER_1
 62
     7
100
AcDbLine
 10
72.383868
 20
15.584578
 30
0.0
 11
72.383868
 21
23.712248
 31
0.0
  0
LINE
  5
A5
100
AcDbEntity
  8
LAYER_1
 62
     7
100
AcDbLine
 10
72.383868
 20
47.850654
 30
0.0
 11
72.383868
 21
28.754489
 31
0.0
  0
LINE
  5
A4
100
AcDbEntity
  8
LAYER_1
 62
     7
100
AcDbLine
 10
64.316832
 20
31.141252
 30
0.0
 11
64.316832
 21
37.181882
 31
0.0
  0
LINE
  5
A3
100
AcDbEntity
  8
LAYER_1
 62
     7
100
AcDbLine
 10
64.316832
 20
47.850654
 30
0.0
 11
64.316832
 21
42.223435
 31
0.0
  0
LINE
  5
A2
100
AcDbEntity
  8
LAYER_1
 62
     7
100
AcDbLine
 10
56.970855
 20
47.850654
 30
0.0
 11
73.823918
 21
47.850654
 31
0.0
  0
LINE
  5
A1
100
AcDbEntity
  8
LAYER_1
 62
     7
100
AcDbLine
 10
22.094086
 20
47.850654
 30
0.0
 11
13.307198
 21
47.850654
 31
0.0
  0
LINE
  5
A0
100
AcDbEntity
  8
LAYER_1
 62
     7
100
AcDbLine
 10
56.25083
 20
48.571023
 30
0.0
 11
56.25083
 21
57.357567
 31
0.0
  0
LINE
  5
9F
100
AcDbEntity
  8
LAYER_1
 62
     7
100
AcDbLine
 10
56.25083
 20
14.864553
 30
0.0
 11
56.25083
 21
6.077493
 31
0.0
  0
LINE
  5
9E
100
AcDbEntity
  8
LAYER_1
 62
     7
100
AcDbLine
 10
39.804633
 20
44.96952
 30
0.0
 11
5.240852
 21
44.96952
 31
0.0
  0
LINE
  5
9D
100
AcDbEntity
  8
LAYER_1
 62
     7
100
AcDbLine
 10
53.369697
 20
21.282077
 30
0.0
 11
53.369697
 21
6.077493
 31
0.0
  0
LINE
  5
9C
100
AcDbEntity
  8
LAYER_1
 62
     7
100
AcDbLine
 10
37.535866
 20
29.707403
 30
0.0
 11
27.146663
 21
26.279533
 31
0.0
  0
LINE
  5
9B
100
AcDbEntity
  8
LAYER_1
 62
     7
100
AcDbLine
 10
36.146975
 20
31.141252
 30
0.0
 11
65.757571
 21
31.141252
 31
0.0
  0
LINE
  5
9A
100
AcDbEntity
  8
LAYER_1
 62
     7
100
AcDbLine
 10
38.389388
 20
46.909109
 30
0.0
 11
38.389388
 21
6.077493
 31
0.0
  0
LINE
  5
99
100
AcDbEntity
  8
LAYER_1
 62
     7
100
AcDbLine
 10
40.513978
 20
29.989212
 30
0.0
 11
13.307198
 21
29.989212
 31
0.0
  0
LINE
  5
98
100
AcDbEntity
  8
LAYER_1
 62
     7
100
AcDbLine
 10
27.146663
 20
26.279533
 30
0.0
 11
26.426294
 21
26.279533
 31
0.0
  0
LINE
  5
97
100
AcDbEntity
  8
LAYER_1
 62
     7
100
AcDbLine
 10
55.041946
 20
18.465712
 30
0.0
 11
5.240852
 21
18.465712
 31
0.0
  0
LINE
  5
96
100
AcDbEntity
  8
LAYER_1
 62
     7
100
AcDbLine
 10
56.970855
 20
15.584578
 30
0.0
 11
73.823918
 21
15.584578
 31
0.0
  0
LINE
  5
95
100
AcDbEntity
  8
LAYER_1
 62
     7
100
AcDbLine
 10
22.814111
 20
48.571023
 30
0.0
 11
22.814111
 21
57.357567
 31
0.0
  0
LINE
  5
94
100
AcDbEntity
  8
LAYER_1
 62
     7
100
AcDbLine
 10
56.25083
 20
7.518232
 30
0.0
 11
61.014019
 21
7.518232
 31
0.0
  0
LINE
  5
93
100
AcDbEntity
  8
LAYER_1
 62
     7
100
AcDbLine
 10
53.369697
 20
7.518232
 30
0.0
 11
35.327215
 21
7.518232
 31
0.0
  0
LINE
  5
92
100
AcDbEntity
  8
LAYER_1
 62
     7
100
AcDbLine
 10
14.747937
 20
47.850654
 30
0.0
 11
14.747937
 21
52.316014
 31
0.0
  0
LINE
  5
91
100
AcDbEntity
  8
LAYER_1
 62
     7
100
AcDbLine
 10
14.747937
 20
29.989212
 30
0.0
 11
14.747937
 21
35.594382
 31
0.0
  0
LINE
  5
90
100
AcDbEntity
  8
LAYER_1
 62
     7
100
AcDbLine
 10
14.747937
 20
44.96952
 30
0.0
 11
14.747937
 21
40.636279
 31
0.0
  0
LINE
  5
8F
100
AcDbEntity
  8
LAYER_1
 62
     7
100
AcDbLine
 10
6.681246
 20
18.465712
 30
0.0
 11
6.681246
 21
26.677097
 31
0.0
  0
LINE
  5
8E
100
AcDbEntity
  8
LAYER_1
 62
     7
100
AcDbLine
 10
6.681246
 20
44.96952
 30
0.0
 11
6.681246
 21
31.71865
 31
0.0
  0
LINE
  5
8D
100
AcDbEntity
  8
LAYER_1
 62
     7
100
AcDbLine
 10
54.504167
 20
29.508276
 30
0.0
 11
54.504167
 21
29.281589
 31
0.0
  0
LINE
  5
8C
100
AcDbEntity
  8
LAYER_1
 62
     7
100
AcDbLine
 10
54.504167
 20
30.401934
 30
0.0
 11
54.504167
 21
30.175247
 31
0.0
  0
LINE
  5
8B
100
AcDbEntity
  8
LAYER_1
 62
     7
100
AcDbLine
 10
54.504167
 20
31.295592
 30
0.0
 11
54.504167
 21
31.068905
 31
0.0
  0
LINE
  5
8A
100
AcDbEntity
  8
LAYER_1
 62
     7
100
AcDbLine
 10
53.755547
 20
30.60175
 30
0.0
 11
53.755547
 21
31.735875
 31
0.0
  0
LINE
  5
89
100
AcDbEntity
  8
LAYER_1
 62
     7
100
AcDbLine
 10
53.755547
 20
24.113946
 30
0.0
 11
53.755547
 21
25.248071
 31
0.0
  0
LINE
  5
88
100
AcDbEntity
  8
LAYER_1
 62
     7
100
AcDbLine
 10
43.037166
 20
45.241855
 30
0.0
 11
41.22229
 21
45.241855
 31
0.0
  0
LINE
  5
87
100
AcDbEntity
  8
LAYER_1
 62
     7
100
AcDbLine
 10
46.609041
 20
45.241855
 30
0.0
 11
44.852043
 21
45.241855
 31
0.0
  0
LINE
  5
86
100
AcDbEntity
  8
LAYER_1
 62
     7
100
AcDbLine
 10
35.086575
 20
44.946955
 30
0.0
 11
32.137745
 21
44.946955
 31
0.0
  0
LINE
  5
85
100
AcDbEntity
  8
LAYER_1
 62
     7
100
AcDbLine
 10
53.52886
 20
31.962562
 30
0.0
 11
53.52886
 21
23.887259
 31
0.0
  0
LINE
  5
84
100
AcDbEntity
  8
LAYER_1
 62
     7
100
AcDbLine
 10
32.137745
 20
43.359111
 30
0.0
 11
35.086575
 21
43.359111
 31
0.0
  0
LINE
  5
83
100
AcDbEntity
  8
LAYER_1
 62
     7
100
AcDbLine
 10
51.328478
 20
19.304937
 30
0.0
 11
51.328478
 21
15.584578
 31
0.0
  0
LINE
  5
82
100
AcDbEntity
  8
LAYER_1
 62
     7
100
AcDbLine
 10
41.22229
 20
42.066166
 30
0.0
 11
46.609041
 21
42.066166
 31
0.0
  0
LINE
  5
81
100
AcDbEntity
  8
LAYER_1
 62
     7
100
AcDbLine
 10
37.831283
 20
41.907347
 30
0.0
 11
26.897583
 21
41.907347
 31
0.0
  0
LINE
  5
80
100
AcDbEntity
  8
LAYER_1
 62
     7
100
AcDbLine
 10
50.579858
 20
16.037953
 30
0.0
 11
50.579858
 21
38.26881
 31
0.0
  0
LINE
  5
7F
100
AcDbEntity
  8
LAYER_1
 62
     7
100
AcDbLine
 10
47.630857
 20
39.570884
 30
0.0
 11
47.630857
 21
47.170075
 31
0.0
  0
LINE
  5
7E
100
AcDbEntity
  8
LAYER_1
 62
     7
100
AcDbLine
 10
40.258352
 20
39.570884
 30
0.0
 11
47.630857
 21
39.570884
 31
0.0
  0
LINE
  5
7D
100
AcDbEntity
  8
LAYER_1
 62
     7
100
AcDbLine
 10
50.579858
 20
38.26881
 30
0.0
 11
43.774417
 21
38.26881
 31
0.0
  0
LINE
  5
7C
100
AcDbEntity
  8
LAYER_1
 62
     7
100
AcDbLine
 10
46.609041
 20
42.066166
 30
0.0
 11
46.609041
 21
45.241855
 31
0.0
  0
LINE
  5
7B
100
AcDbEntity
  8
LAYER_1
 62
     7
100
AcDbLine
 10
44.852043
 20
45.241855
 30
0.0
 11
44.852043
 21
47.056904
 31
0.0
  0
LINE
  5
7A
100
AcDbEntity
  8
LAYER_1
 62
     7
100
AcDbLine
 10
43.774417
 20
38.26881
 30
0.0
 11
43.774417
 21
16.037953
 31
0.0
  0
LINE
  5
79
100
AcDbEntity
  8
LAYER_1
 62
     7
100
AcDbLine
 10
43.037166
 20
47.056904
 30
0.0
 11
43.037166
 21
45.241855
 31
0.0
  0
LINE
  5
78
100
AcDbEntity
  8
LAYER_1
 62
     7
100
AcDbLine
 10
26.897583
 20
33.650315
 30
0.0
 11
37.831283
 21
33.650315
 31
0.0
  0
LINE
  5
77
100
AcDbEntity
  8
LAYER_1
 62
     7
100
AcDbLine
 10
55.796766
 20
31.962562
 30
0.0
 11
53.52886
 21
31.962562
 31
0.0
  0
LINE
  5
76
100
AcDbEntity
  8
LAYER_1
 62
     7
100
AcDbLine
 10
41.256396
 20
27.1036
 30
0.0
 11
41.256396
 21
19.304937
 31
0.0
  0
LINE
  5
75
100
AcDbEntity
  8
LAYER_1
 62
     7
100
AcDbLine
 10
41.22229
 20
45.241855
 30
0.0
 11
41.22229
 21
42.066166
 31
0.0
  0
LINE
  5
74
100
AcDbEntity
  8
LAYER_1
 62
     7
100
AcDbLine
 10
40.258352
 20
47.170075
 30
0.0
 11
40.258352
 21
39.570884
 31
0.0
  0
LINE
  5
73
100
AcDbEntity
  8
LAYER_1
 62
     7
100
AcDbLine
 10
53.755547
 20
31.735875
 30
0.0
 11
55.569735
 21
31.735875
 31
0.0
  0
LINE
  5
72
100
AcDbEntity
  8
LAYER_1
 62
     7
100
AcDbLine
 10
54.731198
 20
31.295592
 30
0.0
 11
54.504167
 21
31.295592
 31
0.0
  0
LINE
  5
71
100
AcDbEntity
  8
LAYER_1
 62
     7
100
AcDbLine
 10
22.814111
 20
31.141252
 30
0.0
 11
35.426606
 21
31.141252
 31
0.0
  0
LINE
  5
70
100
AcDbEntity
  8
LAYER_1
 62
     7
100
AcDbLine
 10
54.504167
 20
31.068905
 30
0.0
 11
54.731198
 21
31.068905
 31
0.0
  0
LINE
  5
6F
100
AcDbEntity
  8
LAYER_1
 62
     7
100
AcDbLine
 10
53.52886
 20
30.60175
 30
0.0
 11
53.755547
 21
30.60175
 31
0.0
  0
LINE
  5
6E
100
AcDbEntity
  8
LAYER_1
 62
     7
100
AcDbLine
 10
54.731198
 20
30.401934
 30
0.0
 11
54.504167
 21
30.401934
 31
0.0
  0
LINE
  5
6D
100
AcDbEntity
  8
LAYER_1
 62
     7
100
AcDbLine
 10
54.504167
 20
30.175247
 30
0.0
 11
54.731198
 21
30.175247
 31
0.0
  0
LINE
  5
6C
100
AcDbEntity
  8
LAYER_1
 62
     7
100
AcDbLine
 10
54.731198
 20
29.508276
 30
0.0
 11
54.504167
 21
29.508276
 31
0.0
  0
LINE
  5
6B
100
AcDbEntity
  8
LAYER_1
 62
     7
100
AcDbLine
 10
54.504167
 20
29.281589
 30
0.0
 11
54.731198
 21
29.281589
 31
0.0
  0
LINE
  5
6A
100
AcDbEntity
  8
LAYER_1
 62
     7
100
AcDbLine
 10
37.831283
 20
33.650315
 30
0.0
 11
37.831283
 21
41.907347
 31
0.0
  0
LINE
  5
69
100
AcDbEntity
  8
LAYER_1
 62
     7
100
AcDbLine
 10
54.731198
 20
28.614619
 30
0.0
 11
54.504167
 21
28.614619
 31
0.0
  0
LINE
  5
68
100
AcDbEntity
  8
LAYER_1
 62
     7
100
AcDbLine
 10
54.504167
 20
28.387587
 30
0.0
 11
54.731198
 21
28.387587
 31
0.0
  0
LINE
  5
67
100
AcDbEntity
  8
LAYER_1
 62
     7
100
AcDbLine
 10
54.731198
 20
27.720961
 30
0.0
 11
54.504167
 21
27.720961
 31
0.0
  0
LINE
  5
66
100
AcDbEntity
  8
LAYER_1
 62
     7
100
AcDbLine
 10
54.504167
 20
27.493929
 30
0.0
 11
54.731198
 21
27.493929
 31
0.0
  0
LINE
  5
65
100
AcDbEntity
  8
LAYER_1
 62
     7
100
AcDbLine
 10
35.426606
 20
31.141252
 30
0.0
 11
35.426606
 21
27.1036
 31
0.0
  0
LINE
  5
64
100
AcDbEntity
  8
LAYER_1
 62
     7
100
AcDbLine
 10
35.426606
 20
27.1036
 30
0.0
 11
41.256396
 21
27.1036
 31
0.0
  0
LINE
  5
63
100
AcDbEntity
  8
LAYER_1
 62
     7
100
AcDbLine
 10
54.731198
 20
26.826614
 30
0.0
 11
54.504167
 21
26.826614
 31
0.0
  0
LINE
  5
62
100
AcDbEntity
  8
LAYER_1
 62
     7
100
AcDbLine
 10
54.504167
 20
26.599927
 30
0.0
 11
54.731198
 21
26.599927
 31
0.0
  0
LINE
  5
61
100
AcDbEntity
  8
LAYER_1
 62
     7
100
AcDbLine
 10
54.731198
 20
25.933301
 30
0.0
 11
54.504167
 21
25.933301
 31
0.0
  0
LINE
  5
60
100
AcDbEntity
  8
LAYER_1
 62
     7
100
AcDbLine
 10
54.504167
 20
25.706269
 30
0.0
 11
54.731198
 21
25.706269
 31
0.0
  0
LINE
  5
5F
100
AcDbEntity
  8
LAYER_1
 62
     7
100
AcDbLine
 10
53.755547
 20
25.248071
 30
0.0
 11
53.52886
 21
25.248071
 31
0.0
  0
LINE
  5
5E
100
AcDbEntity
  8
LAYER_1
 62
     7
100
AcDbLine
 10
54.731198
 20
25.039643
 30
0.0
 11
54.504167
 21
25.039643
 31
0.0
  0
LINE
  5
5D
100
AcDbEntity
  8
LAYER_1
 62
     7
100
AcDbLine
 10
54.504167
 20
24.812611
 30
0.0
 11
54.731198
 21
24.812611
 31
0.0
  0
LINE
  5
5C
100
AcDbEntity
  8
LAYER_1
 62
     7
100
AcDbLine
 10
55.569735
 20
24.113946
 30
0.0
 11
53.755547
 21
24.113946
 31
0.0
  0
LINE
  5
5B
100
AcDbEntity
  8
LAYER_1
 62
     7
100
AcDbLine
 10
53.52886
 20
23.887259
 30
0.0
 11
55.796766
 21
23.887259
 31
0.0
  0
LINE
  5
5A
100
AcDbEntity
  8
LAYER_1
 62
     7
100
AcDbLine
 10
50.579858
 20
19.304937
 30
0.0
 11
51.328478
 21
19.304937
 31
0.0
  0
LINE
  5
59
100
AcDbEntity
  8
LAYER_1
 62
     7
100
AcDbLine
 10
41.256396
 20
19.304937
 30
0.0
 11
43.774417
 21
19.304937
 31
0.0
  0
LINE
  5
58
100
AcDbEntity
  8
LAYER_1
 62
     7
100
AcDbLine
 10
26.897583
 20
41.907347
 30
0.0
 11
26.897583
 21
33.650315
 31
0.0
  0
LINE
  5
57
100
AcDbEntity
  8
LAYER_1
 62
     7
100
AcDbLine
 10
43.774417
 20
16.037953
 30
0.0
 11
50.579858
 21
16.037953
 31
0.0
  0
LINE
  5
56
100
AcDbEntity
  8
LAYER_1
 62
     7
100
AcDbLine
 10
51.328478
 20
15.584578
 30
0.0
 11
56.25083
 21
15.584578
 31
0.0
  0
LINE
  5
55
100
AcDbEntity
  8
LAYER_1
 62
     7
100
AcDbLine
 10
22.814111
 20
47.850654
 30
0.0
 11
22.814111
 21
31.141252
 31
0.0
  0
LINE
  5
54
100
AcDbEntity
  8
LAYER_1
 62
     7
100
AcDbLine
 10
56.25083
 20
47.850654
 30
0.0
 11
22.814111
 21
47.850654
 31
0.0
  0
LINE
  5
53
100
AcDbEntity
  8
LAYER_1
 62
     7
100
AcDbLine
 10
56.25083
 20
15.584578
 30
0.0
 11
56.25083
 21
47.850654
 31
0.0
  0
LINE
  5
52
100
AcDbEntity
  8
LAYER_1
 62
     7
100
AcDbLine
 10
55.796766
 20
23.887259
 30
0.0
 11
55.796766
 21
31.962562
 31
0.0
  0
LINE
  5
51
100
AcDbEntity
  8
LAYER_1
 62
     7
100
AcDbLine
 10
55.569735
 20
31.735875
 30
0.0
 11
55.569735
 21
24.113946
 31
0.0
  0
LINE
  5
50
100
AcDbEntity
  8
LAYER_1
 62
     7
100
AcDbLine
 10
47.630857
 20
47.170075
 30
0.0
 11
40.258352
 21
47.170075
 31
0.0
  0
LINE
  5
4F
100
AcDbEntity
  8
LAYER_1
 62
     7
100
AcDbLine
 10
44.852043
 20
47.056904
 30
0.0
 11
43.037166
 21
47.056904
 31
0.0
  0
LINE
  5
4E
100
AcDbEntity
  8
LAYER_1
 62
     7
100
AcDbLine
 10
54.731198
 20
31.068905
 30
0.0
 11
54.731198
 21
31.295592
 31
0.0
  0
LINE
  5
4D
100
AcDbEntity
  8
LAYER_1
 62
     7
100
AcDbLine
 10
54.731198
 20
30.175247
 30
0.0
 11
54.731198
 21
30.401934
 31
0.0
  0
LINE
  5
4C
100
AcDbEntity
  8
LAYER_1
 62
     7
100
AcDbLine
 10
54.731198
 20
29.281589
 30
0.0
 11
54.731198
 21
29.508276
 31
0.0
  0
LINE
  5
4B
100
AcDbEntity
  8
LAYER_1
 62
     7
100
AcDbLine
 10
54.731198
 20
28.387587
 30
0.0
 11
54.731198
 21
28.614619
 31
0.0
  0
LINE
  5
4A
100
AcDbEntity
  8
LAYER_1
 62
     7
100
AcDbLine
 10
54.731198
 20
27.493929
 30
0.0
 11
54.731198
 21
27.720961
 31
0.0
  0
LINE
  5
49
100
AcDbEntity
  8
LAYER_1
 62
     7
100
AcDbLine
 10
54.731198
 20
26.599927
 30
0.0
 11
54.731198
 21
26.826614
 31
0.0
  0
LINE
  5
48
100
AcDbEntity
  8
LAYER_1
 62
     7
100
AcDbLine
 10
54.731198
 20
25.706269
 30
0.0
 11
54.731198
 21
25.933301
 31
0.0
  0
LINE
  5
47
100
AcDbEntity
  8
LAYER_1
 62
     7
100
AcDbLine
 10
54.731198
 20
24.812611
 30
0.0
 11
54.731198
 21
25.039643
 31
0.0
  0
LINE
  5
46
100
AcDbEntity
  8
LAYER_1
 62
     7
100
AcDbLine
 10
54.504167
 20
25.039643
 30
0.0
 11
54.504167
 21
24.812611
 31
0.0
  0
LINE
  5
45
100
AcDbEntity
  8
LAYER_1
 62
     7
100
AcDbLine
 10
54.504167
 20
25.933301
 30
0.0
 11
54.504167
 21
25.706269
 31
0.0
  0
LINE
  5
44
100
AcDbEntity
  8
LAYER_1
 62
     7
100
AcDbLine
 10
54.504167
 20
26.826614
 30
0.0
 11
54.504167
 21
26.599927
 31
0.0
  0
LINE
  5
43
100
AcDbEntity
  8
LAYER_1
 62
     7
100
AcDbLine
 10
54.504167
 20
27.720961
 30
0.0
 11
54.504167
 21
27.493929
 31
0.0
  0
LINE
  5
42
100
AcDbEntity
  8
LAYER_1
 62
     7
100
AcDbLine
 10
54.504167
 20
28.614619
 30
0.0
 11
54.504167
 21
28.387587
 31
0.0
  0
SPLINE
  5
41
100
AcDbEntity
  8
LAYER_1
 62
     7
100
AcDbSpline
210
0.0
220
0.0
230
1.0
 70
     8
 71
     3
 72
    20
 73
    16
 74
     0
 42
0.00000001
 43
0.00000001
 40
0.0
 40
0.0
 40
0.0
 40
0.0
 40
1.0
 40
1.0
 40
1.0
 40
2.0
 40
2.0
 40
2.0
 40
3.0
 40
3.0
 40
3.0
 40
4.0
 40
4.0
 40
4.0
 40
5.0
 40
5.0
 40
5.0
 40
5.0
 10
55.569734700520826
 20
42.51971299913194
 30
0.0
 10
55.569734700520826
 20
42.51971299913194
 30
0.0
 10
55.570423719618049
 20
42.51971299913194
 30
0.0
 10
55.570423719618049
 20
42.51971299913194
 30
0.0
 10
55.570423719618049
 20
44.52320827907986
 30
0.0
 10
53.944338650173606
 20
46.149121093749997
 30
0.0
 10
51.940671115451387
 20
46.149121093749997
 30
0.0
 10
49.937003580729161
 20
46.149121093749997
 30
0.0
 10
48.31126302083333
 20
44.52320827907986
 30
0.0
 10
48.31126302083333
 20
42.51971299913194
 30
0.0
 10
48.31126302083333
 20
40.516389973958333
 30
0.0
 10
49.937003580729161
 20
38.890477159288189
 30
0.0
 10
51.940671115451387
 20
38.890477159288189
 30
0.0
 10
53.944338650173606
 20
38.890477159288189
 30
0.0
 10
55.570423719618049
 20
40.516389973958333
 30
0.0
 10
55.570423719618049
 20
42.51971299913194
 30
0.0
  0
SPLINE
  5
40
100
AcDbEntity
  8
LAYER_1
 62
     7
100
AcDbSpline
210
0.0
220
0.0
230
1.0
 70
     8
 71
     3
 72
    14
 73
    10
 74
     0
 42
0.00000001
 43
0.00000001
 40
0.0
 40
0.0
 40
0.0
 40
0.0
 40
1.0
 40
1.0
 40
1.0
 40
2.0
 40
2.0
 40
2.0
 40
3.0
 40
3.0
 40
3.0
 40
3.0
 10
32.137745496961806
 20
44.946955023871524
 30
0.0
 10
32.137745496961806
 20
44.946955023871524
 30
0.0
 10
32.137745496961806
 20
44.946955023871524
 30
0.0
 10
32.137745496961806
 20
44.946955023871524
 30
0.0
 10
31.699184841579857
 20
44.946955023871524
 30
0.0
 10
31.343650987413191
 20
44.591248914930553
 30
0.0
 10
31.343650987413191
 20
44.153205023871521
 30
0.0
 10
31.343650987413191
 20
43.71464436848958
 30
0.0
 10
31.699184841579857
 20
43.359110514322914
 30
0.0
 10
32.137745496961806
 20
43.359110514322914
 30
0.0
  0
SPLINE
  5
3F
100
AcDbEntity
  8
LAYER_1
 62
     7
100
AcDbSpline
210
0.0
220
0.0
230
1.0
 70
     8
 71
     3
 72
    14
 73
    10
 74
     0
 42
0.00000001
 43
0.00000001
 40
0.0
 40
0.0
 40
0.0
 40
0.0
 40
1.0
 40
1.0
 40
1.0
 40
2.0
 40
2.0
 40
2.0
 40
3.0
 40
3.0
 40
3.0
 40
3.0
 10
35.086574978298607
 20
43.359110514322914
 30
0.0
 10
35.086574978298607
 20
43.359110514322914
 30
0.0
 10
35.086574978298607
 20
43.359110514322914
 30
0.0
 10
35.086574978298607
 20
43.359110514322914
 30
0.0
 10
35.524791124131944
 20
43.359110514322914
 30
0.0
 10
35.88032497829861
 20
43.71464436848958
 30
0.0
 10
35.88032497829861
 20
44.153205023871521
 30
0.0
 10
35.88032497829861
 20
44.591248914930553
 30
0.0
 10
35.524791124131944
 20
44.946955023871524
 30
0.0
 10
35.086574978298607
 20
44.946955023871524
 30
0.0
  0
SPLINE
  5
3E
100
AcDbEntity
  8
LAYER_1
 62
     7
100
AcDbSpline
210
0.0
220
0.0
230
1.0
 70
     8
 71
     3
 72
    20
 73
    16
 74
     0
 42
0.00000001
 43
0.00000001
 40
0.0
 40
0.0
 40
0.0
 40
0.0
 40
1.0
 40
1.0
 40
1.0
 40
2.0
 40
2.0
 40
2.0
 40
3.0
 40
3.0
 40
3.0
 40
4.0
 40
4.0
 40
4.0
 40
5.0
 40
5.0
 40
5.0
 40
5.0
 10
54.268177625868049
 20
18.465711805555554
 30
0.0
 10
54.268177625868049
 20
18.465711805555554
 30
0.0
 10
54.267833116319437
 20
18.465711805555554
 30
0.0
 10
54.267833116319437
 20
18.465711805555554
 30
0.0
 10
54.267833116319437
 20
18.961461046006942
 30
0.0
 10
53.865790473090271
 20
19.363848198784719
 30
0.0
 10
53.369696723090271
 20
19.363848198784719
 30
0.0
 10
52.873947482638883
 20
19.363848198784719
 30
0.0
 10
52.471560329861106
 20
18.961461046006942
 30
0.0
 10
52.471560329861106
 20
18.465711805555554
 30
0.0
 10
52.471560329861106
 20
17.969618055555554
 30
0.0
 10
52.873947482638883
 20
17.566886393229165
 30
0.0
 10
53.369696723090271
 20
17.566886393229165
 30
0.0
 10
53.865790473090271
 20
17.566886393229165
 30
0.0
 10
54.267833116319437
 20
17.969618055555554
 30
0.0
 10
54.267833116319437
 20
18.465711805555554
 30
0.0
  0
SPLINE
  5
3D
100
AcDbEntity
  8
LAYER_1
 62
     7
100
AcDbSpline
210
0.0
220
0.0
230
1.0
 70
     8
 71
     3
 72
    20
 73
    16
 74
     0
 42
0.00000001
 43
0.00000001
 40
0.0
 40
0.0
 40
0.0
 40
0.0
 40
1.0
 40
1.0
 40
1.0
 40
2.0
 40
2.0
 40
2.0
 40
3.0
 40
3.0
 40
3.0
 40
4.0
 40
4.0
 40
4.0
 40
5.0
 40
5.0
 40
5.0
 40
5.0
 10
39.287524414062496
 20
29.98921169704861
 30
0.0
 10
39.287524414062496
 20
29.98921169704861
 30
0.0
 10
39.287524414062496
 20
29.98921169704861
 30
0.0
 10
39.287524414062496
 20
29.98921169704861
 30
0.0
 10
39.287524414062496
 20
30.48530544704861
 30
0.0
 10
38.885309516059024
 20
30.887692599826387
 30
0.0
 10
38.38938802083333
 20
30.887692599826387
 30
0.0
 10
37.89329427083333
 20
30.887692599826387
 30
0.0
 10
37.491079372829859
 20
30.48530544704861
 30
0.0
 10
37.491079372829859
 20
29.98921169704861
 30
0.0
 10
37.491079372829859
 20
29.493462456597218
 30
0.0
 10
37.89329427083333
 20
29.090730794270829
 30
0.0
 10
38.38938802083333
 20
29.090730794270829
 30
0.0
 10
38.885309516059024
 20
29.090730794270829
 30
0.0
 10
39.287524414062496
 20
29.493462456597218
 30
0.0
 10
39.287524414062496
 20
29.98921169704861
 30
0.0
  0
SPLINE
  5
3C
100
AcDbEntity
  8
LAYER_1
 62
     7
100
AcDbSpline
210
0.0
220
0.0
230
1.0
 70
     8
 71
     3
 72
    20
 73
    16
 74
     0
 42
0.00000001
 43
0.00000001
 40
0.0
 40
0.0
 40
0.0
 40
0.0
 40
1.0
 40
1.0
 40
1.0
 40
2.0
 40
2.0
 40
2.0
 40
3.0
 40
3.0
 40
3.0
 40
4.0
 40
4.0
 40
4.0
 40
5.0
 40
5.0
 40
5.0
 40
5.0
 10
39.287524414062496
 20
44.969520399305551
 30
0.0
 10
39.287524414062496
 20
44.969520399305551
 30
0.0
 10
39.287524414062496
 20
44.969520399305551
 30
0.0
 10
39.287524414062496
 20
44.969520399305551
 30
0.0
 10
39.287524414062496
 20
45.465441894531246
 30
0.0
 10
38.885309516059024
 20
45.868001302083329
 30
0.0
 10
38.38938802083333
 20
45.868001302083329
 30
0.0
 10
37.89329427083333
 20
45.868001302083329
 30
0.0
 10
37.491079372829859
 20
45.465441894531246
 30
0.0
 10
37.491079372829859
 20
44.969520399305551
 30
0.0
 10
37.491079372829859
 20
44.473771158854163
 30
0.0
 10
37.89329427083333
 20
44.071384006076386
 30
0.0
 10
38.38938802083333
 20
44.071384006076386
 30
0.0
 10
38.885309516059024
 20
44.071384006076386
 30
0.0
 10
39.287524414062496
 20
44.473771158854163
 30
0.0
 10
39.287524414062496
 20
44.969520399305551
 30
0.0
  0
MTEXT
  5
3B
100
AcDbEntity
  8
LAYER_1
 62
     7
100
AcDbMText
 10
38.378708
 20
55.330793
 30
0.0
 40
1.574901
 41
0.0
 71
     1
 72
     2
  1
\fBosch Sans Cond Regular|b0|i0;\H1.5749;\C7;\U+0028\U+0032\U+002E\U+0039\U+0030\U+0029
  7
STD
210
0.0
220
0.0
230
1.0
 73
     1
 44
1.0
  0
MTEXT
  5
3A
100
AcDbEntity
  8
LAYER_1
 62
     7
100
AcDbMText
 10
39.098389
 20
57.870862
 30
0.0
 40
1.574901
 41
0.0
 71
     1
 72
     2
  1
\fBosch Sans Cond Regular|b0|i0;\H1.5749;\C7;\U+0037\U+0033\U+002E\U+0037
  7
STD
210
0.0
220
0.0
230
1.0
 73
     1
 44
1.0
  0
MTEXT
  5
39
100
AcDbEntity
  8
LAYER_1
 62
     7
100
AcDbMText
 10
11.743986
 20
54.272459
 30
0.0
 40
1.574901
 41
0.0
 71
     1
 72
     2
  1
\fBosch Sans Cond Regular|b0|i0;\H1.5749;\C7;\U+0028\U+0030\U+002E\U+0032\U+0035\U+0029
  7
STD
210
0.0
220
0.0
230
1.0
 73
     1
 44
1.0
  0
MTEXT
  5
38
100
AcDbEntity
  8
LAYER_1
 62
     7
100
AcDbMText
 10
13.035208
 20
56.812528
 30
0.0
 40
1.574901
 41
0.0
 71
     1
 72
     2
  1
\fBosch Sans Cond Regular|b0|i0;\H1.5749;\C7;\U+0036\U+002E\U+0034
  7
STD
210
0.0
220
0.0
230
1.0
 73
     1
 44
1.0
  0
MTEXT
  5
37
100
AcDbEntity
  8
LAYER_1
 62
     7
100
AcDbMText
 10
69.070375
 20
25.873848
 30
0.0
 40
1.574901
 41
0.0
 71
     1
 72
     2
  1
\fBosch Sans Cond Regular|b0|i0;\H1.5749;\C7;\U+0028\U+0032\U+002E\U+0038\U+0030\U+0029
  7
STD
210
0.0
220
0.0
230
1.0
 73
     1
 44
1.0
  0
MTEXT
  5
36
100
AcDbEntity
  8
LAYER_1
 62
     7
100
AcDbMText
 10
69.790055
 20
28.413917
 30
0.0
 40
1.574901
 41
0.0
 71
     1
 72
     2
  1
\fBosch Sans Cond Regular|b0|i0;\H1.5749;\C7;\U+0037\U+0031\U+002E\U+0031
  7
STD
210
0.0
220
0.0
230
1.0
 73
     1
 44
1.0
  0
MTEXT
  5
35
100
AcDbEntity
  8
LAYER_1
 62
     7
100
AcDbMText
 10
61.485653
 20
39.103015
 30
0.0
 40
1.574901
 41
0.0
 71
     1
 72
     2
  1
\fBosch Sans Cond Regular|b0|i0;\H1.5749;\C7;\U+0028\U+0031\U+002E\U+0034\U+0035\U+0029
  7
STD
210
0.0
220
0.0
230
1.0
 73
     1
 44
1.0
  0
MTEXT
  5
34
100
AcDbEntity
  8
LAYER_1
 62
     7
100
AcDbMText
 10
62.205333
 20
41.643084
 30
0.0
 40
1.574901
 41
0.0
 71
     1
 72
     2
  1
\fBosch Sans Cond Regular|b0|i0;\H1.5749;\C7;\U+0033\U+0036\U+002E\U+0038
  7
STD
210
0.0
220
0.0
230
1.0
 73
     1
 44
1.0
  0
MTEXT
  5
33
100
AcDbEntity
  8
LAYER_1
 62
     7
100
AcDbMText
 10
11.920375
 20
37.515515
 30
0.0
 40
1.574901
 41
0.0
 71
     1
 72
     2
  1
\fBosch Sans Cond Regular|b0|i0;\H1.5749;\C7;\U+0028\U+0031\U+002E\U+0033\U+0030\U+0029
  7
STD
210
0.0
220
0.0
230
1.0
 73
     1
 44
1.0
  0
MTEXT
  5
32
100
AcDbEntity
  8
LAYER_1
 62
     7
100
AcDbMText
 10
12.068514
 20
40.055584
 30
0.0
 40
1.574901
 41
0.0
 71
     1
 72
     2
  1
\fBosch Sans Cond Regular|b0|i0;\H1.5749;\C7;\U+0033\U+0033\U+002E\U+0030\U+0032
  7
STD
210
0.0
220
0.0
230
1.0
 73
     1
 44
1.0
  0
MTEXT
  5
31
100
AcDbEntity
  8
LAYER_1
 62
     7
100
AcDbMText
 10
60.074542
 20
6.823848
 30
0.0
 40
1.574901
 41
0.0
 71
     1
 72
     2
  1
\fBosch Sans Cond Regular|b0|i0;\H1.5749;\C7;\U+0028\U+0030\U+002E\U+0032\U+0035\U+0029
  7
STD
210
0.0
220
0.0
230
1.0
 73
     1
 44
1.0
  0
MTEXT
  5
30
100
AcDbEntity
  8
LAYER_1
 62
     7
100
AcDbMText
 10
61.365763
 20
9.363917
 30
0.0
 40
1.574901
 41
0.0
 71
     1
 72
     2
  1
\fBosch Sans Cond Regular|b0|i0;\H1.5749;\C7;\U+0036\U+002E\U+0034
  7
STD
210
0.0
220
0.0
230
1.0
 73
     1
 44
1.0
  0
MTEXT
  5
2F
100
AcDbEntity
  8
LAYER_1
 62
     7
100
AcDbMText
 10
29.559264
 20
7.353015
 30
0.0
 40
1.574901
 41
0.0
 71
     1
 72
     2
  1
\fBosch Sans Cond Regular|b0|i0;\H1.5749;\C7;\U+0028\U+0031\U+002E\U+0033\U+0030\U+0029
  7
STD
210
0.0
220
0.0
230
1.0
 73
     1
 44
1.0
  0
MTEXT
  5
2E
100
AcDbEntity
  8
LAYER_1
 62
     7
100
AcDbMText
 10
29.707403
 20
9.893084
 30
0.0
 40
1.574901
 41
0.0
 71
     1
 72
     2
  1
\fBosch Sans Cond Regular|b0|i0;\H1.5749;\C7;\U+0033\U+0033\U+002E\U+0030\U+0032
  7
STD
210
0.0
220
0.0
230
1.0
 73
     1
 44
1.0
  0
MTEXT
  5
2D
100
AcDbEntity
  8
LAYER_1
 62
     7
100
AcDbMText
 10
3.982875
 20
28.872459
 30
0.0
 40
1.574901
 41
0.0
 71
     1
 72
     2
  1
\fBosch Sans Cond Regular|b0|i0;\H1.5749;\C7;\U+0028\U+0032\U+002E\U+0033\U+0030\U+0029
  7
STD
210
0.0
220
0.0
230
1.0
 73
     1
 44
1.0
  0
MTEXT
  5
2C
100
AcDbEntity
  8
LAYER_1
 62
     7
100
AcDbMText
 10
4.131014
 20
31.412528
 30
0.0
 40
1.574901
 41
0.0
 71
     1
 72
     2
  1
\fBosch Sans Cond Regular|b0|i0;\H1.5749;\C7;\U+0035\U+0038\U+002E\U+0034\U+0032
  7
STD
210
0.0
220
0.0
230
1.0
 73
     1
 44
1.0
  0
MTEXT
  5
2B
100
AcDbEntity
  8
LAYER_1
 62
     7
100
AcDbMText
 10
15.152563
 20
21.922668
 30
0.0
 40
1.574901
 41
0.0
 71
     1
 72
     2
  1
\fBosch Sans Cond Regular|b0|i0;\H1.5749;\C7;\U+0054\U+0059\U+0050\U+002D\U+0033\U+0020\U+0050\U+004C\U+0043\U+0053
  7
STD
210
0.0
220
0.0
230
1.0
 73
     1
 44
1.0
  0
MTEXT
  5
2A
100
AcDbEntity
  8
LAYER_1
 62
     7
100
AcDbMText
 10
16.640672
 20
24.462737
 30
0.0
 40
1.574901
 41
0.0
 71
     1
 72
     2
  1
\fBosch Sans Cond Regular|b0|i0;\H1.5749;\C7;\U+0028\U+0030\U+002E\U+0031\U+0035\U+0036\U+0029
  7
STD
210
0.0
220
0.0
230
1.0
 73
     1
 44
1.0
  0
MTEXT
  5
29
100
AcDbEntity
  8
LAYER_1
 62
     7
100
AcDbMText
 10
17.931722
 20
27.002806
 30
0.0
 40
1.574901
 41
0.0
 71
     1
 72
     2
  1
\fBosch Sans Cond Regular|b0|i0;\H1.5749;\C7;\U+0033\U+002E\U+0039\U+0036
  7
STD
210
0.0
220
0.0
230
1.0
 73
     1
 44
1.0
  0
ENDSEC
  0
SECTION
  2
OBJECTS
  0
DICTIONARY
  5
19
100
AcDbDictionary
280
     0
281
     1
  3
ACAD_GROUP
350
1A
  3
ACAD_MLINESTYLE
350
1B
  3
ACAD_LAYOUT
350
1E
  3
ACAD_PLOTSETTINGS
350
22
  3
ACAD_PLOTSTYLENAME
350
1F
  3
ACAD_WIPEOUT_VARS
350
23
  0
DICTIONARY
  5
1A
102
{ACAD_REACTORS
330
19
102
}
100
AcDbDictionary
280
     0
281
     1
  0
DICTIONARY
  5
1B
102
{ACAD_REACTORS
330
19
102
}
100
AcDbDictionary
280
     0
281
     1
  3
Standard
350
1C
  0
MLINESTYLE
  5
1C
102
{ACAD_REACTORS
330
1B
102
}
100
AcDbMlineStyle
  2
Standard
 70
     0
  3

 62
     0
 51
90.0
 52
90.0
 71
     2
 49
0.5
 62
   256
  6
ByLayer
 49
-0.5
 62
   256
  6
ByLayer
  0
ACDBDICTIONARYWDFLT
  5
1F
102
{ACAD_REACTORS
330
19
102
}
100
AcDbDictionary
281
     1
  3
Normal
350
1D
100
AcDbDictionaryWithDefault
340
1D
  0
ACDBPLACEHOLDER
  5
1D
102
{ACAD_REACTORS
330
1F
102
}
  0
LAYOUT
  5
20
102
{ACAD_REACTORS
330
1E
102
}
100
AcDbPlotSettings
  1

  2

  4

  6

 40
0.0
 41
0.0
 42
0.0
 43
0.0
 44
0.0
 45
0.0
 46
0.0
 47
0.0
 48
0.0
 49
0.0
140
0.0
141
0.0
142
1.0
143
1.0
 70
  1024
 72
     0
 73
     0
 74
     0
  7

 75
     0
147
1.0
148
0.0
149
0.0
100
AcDbLayout
  1
Model
 70
     0
 71
     0
 10
0.0
 20
0.0
 11
0.0
 21
0.0
 12
0.0
 22
0.0
 32
0.0
 14
0.0
 24
0.0
 34
0.0
 15
0.0
 25
0.0
 35
0.0
146
0.0
 13
0.0
 23
0.0
 33
0.0
 16
0.0
 26
0.0
 36
0.0
 17
0.0
 27
0.0
 37
0.0
 76
     0
330
A
331
0
345
0
346
0
  0
LAYOUT
  5
21
102
{ACAD_REACTORS
330
1E
102
}
100
AcDbPlotSettings
  1

  2

  4

  6

 40
0.0
 41
0.0
 42
0.0
 43
0.0
 44
0.0
 45
0.0
 46
0.0
 47
0.0
 48
0.0
 49
0.0
140
0.0
141
0.0
142
1.0
143
1.0
 70
     0
 72
     0
 73
     0
 74
     0
  7

 75
     0
147
1.0
148
0.0
149
0.0
100
AcDbLayout
  1
Layout1
 70
     0
 71
     0
 10
0.0
 20
0.0
 11
0.0
 21
0.0
 12
0.0
 22
0.0
 32
0.0
 14
0.0
 24
0.0
 34
0.0
 15
0.0
 25
0.0
 35
0.0
146
0.0
 13
0.0
 23
0.0
 33
0.0
 16
0.0
 26
0.0
 36
0.0
 17
0.0
 27
0.0
 37
0.0
 76
     0
330
B
331
0
345
0
346
0
  0
DICTIONARY
  5
1E
102
{ACAD_REACTORS
330
19
102
}
100
AcDbDictionary
280
     0
281
     1
  3
Layout1
350
21
  3
Model
350
20
  0
DICTIONARY
  5
22
102
{ACAD_REACTORS
330
19
102
}
100
AcDbDictionary
280
     0
281
     1
  0
WIPEOUTVARIABLES
  5
23
100
AcDbWipeoutVariables
 70
     1
  0
ENDSEC
  0
EOF
